Simple Plan- I'd Do Anything
Tabber- Adam B
Tuning- Standard

Introduction
e---------------------------
b---------------------------
g---------0-3-1-------------	
d---3-6-1-------------------
a-4-------------------------
e---------------------------

Verse
e------------------------------------------
b------------------------------------------
g------------------------------------------
d-----6-5-6-----6-5-6--3--6-5-6------------
a------------------------------------------
e--4---------3-----------------------------

e---------------------------
b---------------------------
g---------0-3-1-------------	Play This 4 Times
d---3-6-1-------------------
a-4-------------------------
e---------------------------

pre-chorus
e------------------------------------------
b------------------------------------------
g------------------------------------------
d---6-5-6-----6-5-6-----6-5-6------5-5-6-8-
a-----------3---------4----------6---------
e-3----------------------------------------

Chorus
e---------------------------------------
b---------------------------------------
g-6-6-------8—-10-----------------------
d-6-6----6--8—-10-----------------------
a-4-4----6--6--8------------------------
e--------4------------------------------


Текст, аккорды и табулатура для песни "Id Do Anything", исполняет "Simple Plan".
Используемые в песне аккорды можно найти в разделе Как брать аккорды. Аккорды для шестиструнной гитары. Другие песни можно найти на нашем сайте, воспользовавшись алфавитным указателем вверху страницы.


 
Ошибка в тексте? Выделите ошибку и нажмите Ctrl+Enter