Simple Plan
Title: Grow Up
Turning: Drop D
Tabber: [email protected]
This is who I am and this is what I like
Thank u

Intro
Guitar 

1
Guitar 1:
E|-------------------------------------------------------|
B|-------------------------------------------------------|
G|-44------44-66------44-66-44446666-444444446~----------|
D|-44------22-44--x2--22-44-44444444-222222224~----------|
A|-22------22-44------22-44-22224444-222222224~----------|
D|---------22-44------22-44-----4444-222222224~----------|
Chorus
Guitar 
2
Guitar1:
E|-------------------------------------------------------|
B|-------------------------------------------------------|
G|-44------44-66------44-66-44446666-4~-------------666--|
D|-44------22-44--x2--22-44-44444444-2~-------------444--|
A|-22------22-44------22-44-22224444-2~-------------444--|
D|---------22-44------22-44-----4444-2~-------------444--|
Interlude 
Guitar1:
E|-------------------------------------------------------|
B|-------------------------------------------------------|
G|--6~-----4~-----6~--4~--4~----------6~-----4~----------|
D|--4~-----2~-----6~--4~--2~----x2----4~-----2~----------|
A|--4~-----2~-----4~--2~--2~----------4~-----2~----------|
D|--4~-----2~-------------2~----------4~-----2~----------|
Guitar 
on-4--|
Last Chorus
Guitar 1:
E|-----------------------------------------------------------------|
B|-----------------------------------------------------------------|
G|-4-4444446-6666664-4444446-666666----4-4444446-666666----44--44--|
D|-4-4444446-6666662-2222224-444444-x4-2-2222224-444444?x2-44--44--|
A|-2-2222224-4444442-2222224-444444----2-2222224-444444----22--22--|
D|-----------------2-2222224-444444----2-2222224-444444------------|
That's all, thanx


Текст, аккорды и табулатура для песни "Grow Up", исполняет "Simple Plan".
Используемые в песне аккорды можно найти в разделе Как брать аккорды. Аккорды для шестиструнной гитары. Другие песни можно найти на нашем сайте, воспользовавшись алфавитным указателем вверху страницы.


Слушать онлайн Grow Up


Simple PlanGrow Up на Яндекс.Музыке


 
Ошибка в тексте? Выделите ошибку и нажмите Ctrl+Enter