this is my second try at this song and i now know what i did wrong so here goes...

-----------------------------------------------------------------------------
                         CRASH AND BURN BY SIMPLE PLAN
-----------------------------------------------------------------------------

tuning-(Eb,Ab,Db,Gb,Bb,Eb)

Intro=guitar 1 (JEFF)  (CLEAN)

Eb--0-000-3-1-0-1-3--13-12--13-12----|
Bb------------------------13-----13--|
Gb-----------------------------------|
Db-----------------------------------|
Ab-----------------------------------|
Eb-----------------------------------|

intro/verse=guitar 2  (SEB) (DISTORTION)

Eb--------------------------------------------------------------------------|
Bb--------------------------------------------------------------------------|
Gb-4-4-4-4-4-4-4-4-4-4-4-4--------------------------------------------------|
Db-4-4-4-4-4-4-4-4-4-4-4-4---2-2-2-2-2-2-2-2-2-2-2-2------------------------|
Ab-2-2-2-2-2-2-2-2-2-2-2-2---2-2-2-2-2-2-2-2-2-2-2-2------------------------|
Eb---------------------------0-0-0-0-0-0-0-0-0-0-0-0------------------------|

continued...

Eb--------------------------------------------------------------------------|
Bb--------------------------------------------------------------------------|
Gb--------------------------------------------------------------------------|
Db-6-6-6-6-6-6-6-6-6-6----------2-2-2-------2-2-2-2-------------------------|
Ab-6-6-6-6-6-6-6-6-6-6----------2-2-2-------2-2-2-2-------------------------|
Eb-4-4-4-4-4-4-4-4-4-4----------0-0-0-------0-0-0-0-------------------------|

guitar 1 & 2 repeat once.

chorus= guitar 1 (JEFF) (LIGHT DISTORTION)

Eb--13/--20---20---20--19---20---|
Bb-------------------------------|
Gb-------------------------------|
Db-------------------------------|
Ab-------------------------------|
Eb-------------------------------|

Chorus= guitar 2  (SEB)  (DISTORTION)

Eb-------------------------------------------------------------------------|
Bb-------------------------------------------------------------------------|
Gb--------------------------4-4-4-4-4--------------------------------------|
Db--6-6-6-6-6---2-2-2-2-2---4-4-4-4-4---4-4-4-4-4--------------------------|
Ab--6-6-6-6-6---2-2-2-2-2---2-2-2-2-2---4-4-4-4-4--------------------------|
Eb--4-4-4-4-4---0-0-0-0-0---------------2-2-2-2-2--------------------------|

outro is the same as verse  g2g bye


Текст, аккорды и табулатура для песни "Crash And Burn", исполняет "Simple Plan".
Используемые в песне аккорды можно найти в разделе Как брать аккорды. Аккорды для шестиструнной гитары. Другие песни можно найти на нашем сайте, воспользовавшись алфавитным указателем вверху страницы.


 
Ошибка в тексте? Выделите ошибку и нажмите Ctrl+Enter