SILVERCHAIR - Suicidal Dream - Frogstomp

Intro and Verse
e|-----------------------------------|-0---|
B|-----------------------------------|---0-|
G|-------4-----4---------4-----4---4-|-----|
D|-----4-----4---4-----4-----4-------|-----|
A|-0-2---------------------------0---|-----|
E|---------3-------3-0-----2---------|-----|

Chorus
[chord progression]
e|-2----2----0----3-|
B|-3----2----0----3-|
G|-4----3----0----0-|
D|-4----4----2----0-|
A|-2----4----2----2-|
E|-2----2----0----3-|

Solo
gtr1
e|---------------------------------|
B|---3-------------3---------------|
G|-----4-2------------4-2----------|
D|----------4--------------4/5-4-2-|
A|-2-----------5-4-----------------|
E|---------------------------------|

gtr2
e|--------------------|
B|--------------------|
G|--------------------|
D|-4--7-7--0--5---4-4-|
A|-2--5-5--0--5-x-4-4-|
E|------------3-x-2-2-|


Текст, аккорды и табулатура для песни "Suicidal Dream", исполняет "Silverchair".
Используемые в песне аккорды можно найти в разделе Как брать аккорды. Аккорды для шестиструнной гитары. Другие песни можно найти на нашем сайте, воспользовавшись алфавитным указателем вверху страницы.


Слушать онлайн Suicidal Dream


SilverchairSuicidal Dream на Яндекс.Музыке


 
Ошибка в тексте? Выделите ошибку и нажмите Ctrl+Enter