Shade - Silverchair
Tabed by: Goose	([email protected])

					    

   [email protected]------------------------|
   |gtr-only|---bend----0--2--3----------------------------0-2-3----------------------------|
   |-7-bars-|--3^-----------------3--3---0--1-1--------------------3--3---0--1---1----------|
   |--------|5--------------------------------------3/----------------------------------3/--|

   |-----------------------------------------------------2-0--------------------------------|
   |0-2-3------------------------0-2-3----------------0-------2-----------------------------|
   |-------3--3---0--1-1----------------3--0---0-----------------3---3-----------------H---3|
   |-----------------------3/------------------------------------1------5-3---3-3-3---3-5---|

   |---2-0-------------------------------------------2-0------------------------------------|
   |0-------2-------------------------------------0-------2---------------------------------|
   |-------------3----3-----------------H---3------------------3----3------------------H---3|
   |-------------1-------5-3---3-3-3---3-5---------------------1-------5-3---3-3-3----3-5---|

   |---2-0----------------------------------------------------------------------------------|
   |0-------2----------------0-2-3--------------------------0-2-3---------------------------|
   |-------------3----3-------------3--3--0--0--1---1-----------------3--3---0--1---1-------|
   |-------------1------------------------------------3/---------------------------------3/-|

   |-----------------------------------------------------2-0--------------------------------|
   |0-2-3------------------------0-2-3----------------0-------2-----------------------------|
   |-------3--3--0-0--1-1---------------3--0---0-----------------3---3-----------------H---3|
   |-----------------------3/------------------------------------1------5-3---3-3-3---3-5---|

   |---2-0-------------------------------------------2-0------------------------------------|
   |0-------2-------------------------------------0-------2---------------------------------|
   |-------------3----3-----------------H---3------------------3----3------------------H---3|
   |-------------1-------5-3---3-3-3---3-5---------------------1-------5-3---3-3-3----3-5---|

   |---2-0----------------------------------------------------------------------------------|
   |0-------2------------0-----------------0-----------------0-------------------0----------|
   |------------3---3------------3-3--------------3-3----------------3-3-----------------3--|
   |------------1-----------1-1------3-3------1-1------3-3------1-1--------3-3------1-1-----|

   |-------------------------------------slight---------2-0---------------------------------|
   |0--------slight----0-0----------------bend-------0-------2------------------------------|
   |---3------bend----------3--3------H---3^--------------------3---3-----------------H---3-|
   |------5---8^------------------3--3-5------------------------1------5-3---3-3-3---3-5----|

   |---2-0-------------------------------------------2-0------------------------------------|
   |0-------2-------------------------------------0-------2---------------------------------|
   |-------------3----3-----------------H---3------------------3----3------------------H---3|
   |-------------1-------5-3---3-3-3---3-5---------------------1-------5-3---3-3-3----3-5---|

   |---2-0-------------------------------------------2-0------------------------------------|
   |0-------2-------------------------------------0-------2---------------------------------|
   |-------------3----3-----------------H---3------------------3----3------------------H---3|
   |-------------1-------5-3---3-3-3---3-5---------------------1-------5-3---3-3-3----3-5---|

   |---2-0-------------------------------------------2-0------------------------------------|
   |0-------2-------------------------------------0-------2---------------------------------|
   |-------------3----3-----------------H---3------------------3----3------------------H---3|
   |-------------1-------5-3---3-3-3---3-5---------------------1-------5-3---3-3-3----3-5---|

   |---2-0----------------------------------------------------------------------------------|
   |0-------2--------------------------------------------------|
   |-------------3--------------3-------------5------5---------5----------5-----------------|
   |-------------1----1-/-3-----------3-3---------------------------------------------------|




Текст, аккорды и табулатура для песни "Shade", исполняет "Silverchair".
Используемые в песне аккорды можно найти в разделе Как брать аккорды. Аккорды для шестиструнной гитары. Другие песни можно найти на нашем сайте, воспользовавшись алфавитным указателем вверху страницы.


Слушать онлайн Shade


SilverchairShade на Яндекс.Музыке


 
Ошибка в тексте? Выделите ошибку и нажмите Ctrl+Enter