Silverchair, Punk Song #2.
Tabbed by Chantal, [email protected]
  
PUNK SONG #2
SILVERCHAIR

*TUNING* = Standard

INTRO
Daniel plays around with open strings
then he plays this twice:
E|--------------------------|
B|--------------------------|
G|----------------5-5-5-5-5-|
D|----------------5-5-5-5-5-|
A|----5-4--0------3-3-3-3-3-|
E|--0--------3-0------------|

E|-------------|
B|-x--x--x--x--|
G|-x--x--x--x--|  
D|-x--x--x--x--| 
A|-x--x--x--x--|
E|-------------|

VERSE

E|----------------------------------------------------------|
B|----------------------------------------------------------|
G|-2--2--2-2----4--4-4--4-4----x--7--7--7-7-----9--9-9--9-9-|
D|-2--2--2-2--0-4--4-4--4-4--0-x--7--7--7-7-x-0-9--9-9--9-9-|
A|-0--0--0-0--0-2--2-2--2-2--0-x--5--5--5-5-x-0-7--7-7--7-7-|
E|----------------------------------------------------------|

CHORUS

E|-----------------------|-----------------------|
B|-----------------------|-----------------------|
G|-2--2--2-2----9-8-7--5-|-2--2--2-2----9-8-7--5-|
D|-2--2--2-2--0-9-8-7--5-|-2--2--2-2--0-9-8-7--5-|
A|-0--0--0-0--0-7-6-5--3-|-0--0--0-0--0-7-6-5--3-|
E|-----------------------|-----------------------|

BRIDGE

E|--------------------------------------------------------|
B|--------------------------------------------------------|
G|-4--4--4-4----------------------------------7--7-7--7-7-|
D|-4--4--4-4-0--5--5-5--5-5-----/8--8--8-8-0--7--7-7--7-7-|
A|-2--2--2-2-0--5--5-5--5-5-0-0-/8--8--8-8-0--5--5-5--5-5-|
E|--------------3--3-3--3-3-0-0-/6--6--6-6----------------|

INTERLUDE

E|----------------------------|----------------------------|
B|----------------------------|----------------------------|
G|------------------5-5-5-5-5-|------------------5-5-5-5-5-|
D|------------------5-5-5-5-5-|------------------5-5-5-5-5-|
A|------5-4--0------3-3-3-3-3-|------5-4--0------3-3-3-3-3-|
E|-0-0---------3-0------------|-0-0---------3-0------------|

E|---------------------------|---------------------------|
B|---------------------------|---------------------------|
G|------7-6-2------5-5-5-5-5-|------7-6-2------5-5-5-5-5-|
D|-2-2--7-6-2-5-2--5-5-5-5-5-|-2-2--7-6-2-5-2--5-5-5-5-5-|
A|-2-2--5-4-0-5-2--3-3-3-3-3-|-2-2--5-4-0-5-2--3-3-3-3-3-|
E|-0-0--------3-0------------|-0-0--------3-0------------|

OUTRO

E|----------------------------|----------------------------|
B|----------------------------|----------------------------|
G|------------------5-5-5-5-5-|------------------5-5-5-5-5-|
D|------------------5-5-5-5-5-|------------------5-5-5-5-5-|
A|------5-4--0------3-3-3-3-3-|------5-4--0------3-3-3-3-3-|
E|-0-0---------3-0------------|-0-0---------3-0------------|

E|----------------------------------------------------------|
B|----------------------------------------------------------|
G|-2--2--2-2----4--4-4--4-4----x--7--7--7-7-----9--9-9--9-9-|
D|-2--2--2-2--0-4--4-4--4-4--0-x--7--7--7-7-x-0-9--9-9--9-9-|
A|-0--0--0-0--0-2--2-2--2-2--0-x--5--5--5-5-x-0-7--7-7--7-7-|
E|----------------------------------------------------------|

E|-----------------------|
B|-----------------------|
G|-2--2--2-2----9-8-7--5-|
D|-2--2--2-2--0-9-8-7--5-|
A|-0--0--0-0--0-7-6-5--3-|
E|-----------------------|

:: Ultimate Guitar Archive :: 
http://www.ultimate-guitar.com 





Текст, аккорды и табулатура для песни "Punk Song 2", исполняет "Silverchair".
Используемые в песне аккорды можно найти в разделе Как брать аккорды. Аккорды для шестиструнной гитары. Другие песни можно найти на нашем сайте, воспользовавшись алфавитным указателем вверху страницы.


Слушать онлайн Punk Song 2


SilverchairPunk Song 2 на Яндекс.Музыке


 
Ошибка в тексте? Выделите ошибку и нажмите Ctrl+Enter