One Way Mule – By SILVERCHAIR
Tabbed by IVANDUKE – This is the REAL One way mule Tab, to all Silverchairґs fans. Enjoy.

This song uses a Drop-B tuning, but I prefer to play it in Drop-C.
It’s easier to tune the guitar and the power chords sounds better.

Drop-C Tuning: C, G, C, F, A, D 

It works like a Drop-D tuning, but gives you extra-power chords.

/= Slide
H= Hammer on
Bu= Bend up
Bd= Bend down
P= Pull off

Intro(x2)

d||----------------------------------------------------------------||
A||----------------------------------------------------------------||
F||----------------------------------------------------------------||
C||-0-0-3-0-0-3---0-3-0-0-0---1------------------------------------||
G||-0-0-3-0-0-3---0-3-0-0-0---1--1-1-1-----------------------------||
C||-0-0-3-0-0-3---0-3-0-0-0---1--1-1-1/10---10-10-8-10/11-10-8-10--||

d||---------------------------------------------------------------||
A||---------------------------------------------------------------||
F||---------------------------------------------------------------||
C||-0-0-3-0-0-3---0-3-0-0-0----1----------------------------------||
G||-0-0-3-0-0-3---0-3-0-0-0----1--1-1-1---------------------------||
C||-0-0-3-0-0-3---0-3-0-0-0----1--1-1-1/10---8/10-10-8-8-7-7------||

Verse 1

d||----------------------------------------------------------------||
A||----------------------------------------------------------------||
F||----------------------------------------------------------------||
C||-0-0-3-0-0-3---0-3-0-0-0---1------------------------------------||
G||-0-0-3-0-0-3---0-3-0-0-0---1--1-1-1-----------------------------||
C||-0-0-3-0-0-3---0-3-0-0-0---1--1-1-1/10---10-10-8-10/11-10-8-10--||
   
      Let my, spirit ride...

d||---------------------------------------------------------------||x1
A||---------------------------------------------------------------||
F||---------------------------------------------------------------||
C||-0-0-3-0-0-3---0-3-0-0-0----1----------------------------------||
G||-0-0-3-0-0-3---0-3-0-0-0----1--1-1-1---------------------------||
C||-0-0-3-0-0-3---0-3-0-0-0----1--1-1-1/10---8/10-10-8-8-7-7------||

d||----------------------------||
A||----------------------------||
F||----------------------------||
C||-0-0-3-0-0-3---0-3-0-0-0----||
G||-0-0-3-0-0-3---0-3-0-0-0----||
C||-0-0-3-0-0-3---0-3-0-0-0----||

      Naked and anchored...

Pre-Chorus

d||------------------||
A||------------------||
F||-8---10---5---8---||
C||-8---10---5---8---||
G||-6---8----3---6---||
C||------------------||

   I’ll climb right...

Chorus(clean)

d||---------------------------------------------||Make you own rhythm
A||-----8---------------------------------------||at this part with
F||-7-7---7---10---5---8-8-8---8-8-8---5-5-5----||that chords sequence 
C||-7-7-------10---5---8-8---8-8-8-8---5-5-5----||
G||-5-5-------8----3---6-6-----6-6-6---3-3-3----||
C||---------------------------------------------||
 
 2nd time

d||--------------------|| 
A||-----8--------------|| 
F||-7-7---7---10---5---|| 
C||-7-7-------10---5---||
G||-5-5-------8----3---||
C||--------------------||

Post-Chorus

d||------------------||
A||------------------||
F||-8---10---5---8---||
C||-8---10---5---8---||
G||-6---8----3---6---||
C||------------------||

   I’m coming back to...

Interlude(1:20)

d||----------------------------------------------------------------||
A||----------------------------------------------------------------||
F||----------------------------------------------------------------||
C||-0-0-3-0-0-3---0-3-0-0-0---1------------------------------------||
G||-0-0-3-0-0-3---0-3-0-0-0---1--1-1-1-----------------------------||
C||-0-0-3-0-0-3---0-3-0-0-0---1--1-1-1/10---10-10-8-10/11-10-8-10--||

d||-----------------------------------------------||
A||-----------------------------------------------||
F||-----------------------------------------------||
C||-0-0-3-0-0-3---0-3-0-0-0----8---10---5---8-8---||
G||-0-0-3-0-0-3---0-3-0-0-0----8---10---5---8-8---||
C||-0-0-3-0-0-3---0-3-0-0-0----6---8----3---6-6---|| 

Verse 2

d||----------------------------------------------------------------||
A||----------------------------------------------------------------||
F||----------------------------------------------------------------||
C||-0-0-3-0-0-3---0-3-0-0-0---1------------------------------------||
G||-0-0-3-0-0-3---0-3-0-0-0---1--1-1-1-----------------------------||
C||-0-0-3-0-0-3---0-3-0-0-0---1--1-1-1/10---10-10-8-10/11-10-8-10--||
   
      Distant memories...

d||---------------------------------------------------------------||x2
A||---------------------------------------------------------------||
F||---------------------------------------------------------------||
C||-0-0-3-0-0-3---0-3-0-0-0----1----------------------------------||
G||-0-0-3-0-0-3---0-3-0-0-0----1--1-1-1---------------------------||
C||-0-0-3-0-0-3---0-3-0-0-0----1--1-1-1/10---8/10-10-8-8-7-7------||

2nd Chorus(clean)

d||---------------------------------------------|| 
A||-----8---------------------------------------|| 
F||-7-7---7---10---5---8-8-8---8-8-8---5-5-5----|| 
C||-7-7-------10---5---8-8---8-8-8-8---5-5-5----||
G||-5-5-------8----3---6-6-----6-6-6---3-3-3----||
C||---------------------------------------------||

2nd time

d||--------------------|| ||------------------|| 
A||-----8--------------|| ||------------------|| 
F||-7-7---7---10---5---|| ||-8---10---5---8---|| 
C||-7-7-------10---5---|| ||-8---10---5---8---|| 
G||-5-5-------8----3---|| ||-6---8----3---6---|| 
C||--------------------|| ||------------------|| 
          I’m coming back to...

3rd time

d||---------------------------------------------|| 
A||-----8---------------------------------------|| 
F||-7-7---7---10---5---8-8-8---8-8-8---5-5-5----|| 
C||-7-7-------10---5---8-8---8-8-8-8---5-5-5----||
G||-5-5-------8----3---6-6-----6-6-6---3-3-3----||
C||---------------------------------------------||
   I’ll stake out just to find...
 
4th time

d||--------------------|| ||-------------------------|| 
A||-----8--------------|| ||-------------------------|| 
F||-7-7---7---10---5---|| ||-8---10---5--------------|| 
C||-7-7-------10---5---|| ||-8---10---5-----0-5-4----|| 
G||-5-5-------8----3---|| ||-6---8----3-----0-5-4----|| 
C||--------------------|| ||----------------0-5-4----|| 
                      |-distortion-|
          I’m coming back for...


Bridge(distortion)(2:40)

d||----------------------------------------||
A||----------------------------------------||
F||----------------------------------------||
C||-0-0-3-0-0--3-0-0---1-0-0---4-4-0-0-3---||
G||-0-0-3-0-0--3-0-0---1-0-0---4-4-0-0-3---||
C||-0-0-3-0-0--3-0-0---1-0-0---4-4-0-0-3---||

Bridge 2nd time(2:44)

d||----------------------------------------||x3
A||----------------------------------------||
F||----------------------------------------||
C||-8-0-3-0-0--3-0-0---1-0-0---4-4-0-0-3---||
G||-8-0-3-0-0--3-0-0---1-0-0---4-4-0-0-3---||
C||-8-0-3-0-0--3-0-0---1-0-0---4-4-0-0-3---||

Solo (2:56)

Guitar 1

d||-----------------------------------------------------------------||
A||-11~-10~-11~-10~-------------------------------------------------||
F||------------------------------------------------------10---------||
C||----------------12-12-12--12bu(14)bd12--12bu(14)bd12-----13------||
G||------------------------------------------------------------12---||
C||-----------------------------------------------------------------||

d||----------------------------------||-----------------------------||
A||----------------------------------||-13bu(14)-13bu(14)-13bu(14)--||
F||-------10----10--10bu(11)bd10-----||-----------------------------||
C||-10/12----12------------------13--||-----------------------------||
G||----------------------------------||-----------------------------||
C||----------------------------------||-----------------------------||

d||-----------------------------------------------------------------||
A||-13bu(14)-------------------------------------------------15-18bu||
F||---------13-14-13H14P13-11-13-11H13P11---------------------------||
C||--------------------------------------12--13-15-13H15P13---------||
G||--------------------------------------------------------12-------||
C||-----------------------------------------------------------------||

Guitar 2

d||----------------------------------------||x4
A||----------------------------------------||
F||----------------------------------------||
C||-8-0-3-0-0--3-0-0---1-0-0---4-4-0-0-3---||
G||-8-0-3-0-0--3-0-0---1-0-0---4-4-0-0-3---||
C||-8-0-3-0-0--3-0-0---1-0-0---4-4-0-0-3---||

Post-Solo(3:13)

d||---------------------------------------------------------||x2
A||---------------------------------------------------------||
F||---------------------------------------------------------||
C||-8-8-0-0-3-0-0-0-0-0-1-0-0-0-0--3-0-0-0-0-4-4-0-0-3-3-4--||
G||-8-8-0-0-3-0-0-0-0-0-1-0-0-0-0--3-0-0-0-0-4-4-0-0-3-3-4--||
C||-8-8-0-0-3-0-0-0-0-0-1-0-0-0-0--3-0-0-0-0-4-4-0-0-3-3-4--||
                     Very fast picking

Interlude 2(clean)

d||---------------------------------------------------------||
A||----------8----------------------------------------------||
F||------7-----7---7-----10---5------8---8----------10---5--||
C||----7---7-----7-----10----5-----8---8---8-8----10----5---||
G||--5----------------8-----3----6----------6----8-----3----||
C||---------------------------------------------------------||
   And love for my mind...

d||---------------------------------------------------------||
A||----------8----------------------------------------------||
F||------7-----7---7-----10---5------?---?----------?----?--||
C||----7---7-----7-----10----5-----?---?---?-?----?-----?---||
G||--5----------------8-----3----?----------?----?-----?----||
C||---------------------------------------------------------||

Drums and bass on(3:36)

d||---------------------------------------------------------||
A||----------8----------------------------------------------||
F||------7-----7---7-----10---5------8---8----------10---5--||
C||----7---7-----7-----10----5-----8---8---8-8----10----5---||
G||--5----------------8-----3----6----------6----8-----3----||
C||---------------------------------------------------------||
   I’ll stake out just to find...

d||------------------------------|| ||---------------------||Distortion 
A||----------8-------------------|| ||---------------------||on
F||------7-----7---7-----10---5--|| ||-8-8-8-8-8-8-8-8-8-8-||
C||----7---7-----7-----10----5---|| ||-8-8-8-8-8-8-8-8-8-8-||
G||--5----------------8-----3----|| ||-6-6-6-6-6-6-6-6-6-6-||
C||------------------------------|| ||---------------------||
					        I’m coming back to you!!!

Outro

d||-----------------------------------------------------------------||
A||-------------------------------------------------------------5b--||
F||-------------------------------------------------------------5b--||
C||-0-0-3-0-0-3---0-3-0-0-3---0-3-0-0-3---0-0-3-0-0-3-0-0-3-0-0-----||
G||-0-0-3-0-0-3---0-3-0-0-3---0-3-0-0-3---0-0-3-0-0-3-0-0-3-0-0-----||
C||-0-0-3-0-0-3---0-3-0-0-3---0-3-0-0-3---0-0-3-0-0-3-0-0-3-0-0-----||
   To you...					 
                                End
d||------------------------|| ||-----------------------||
A||------------------------|| ||-----------------------||
F||------------------------|| ||-----------------------||
C||-0-0-3-0-0-3-0-0-3-0-0--|| ||-5-4--4-3--3-0--4-4-1--||
G||-0-0-3-0-0-3-0-0-3-0-0--|| ||-5-4--4-3--3-0--4-4-1--||
C||-0-0-3-0-0-3-0-0-3-0-0--|| ||-5-4--4-3--3-0--4-4-1--||

Any comments or questions? Just E-mail me to [email protected] and I’ll
give you an answer soon. I’m an advanced guitar player and I try to give 100%
accuracy to my tabs. If you have any corrections of this tab send it to my E-
mail. This is to all Silverchair’s fans. Enjoy.


Текст, аккорды и табулатура для песни "One Way Mule", исполняет "Silverchair".
Используемые в песне аккорды можно найти в разделе Как брать аккорды. Аккорды для шестиструнной гитары. Другие песни можно найти на нашем сайте, воспользовавшись алфавитным указателем вверху страницы.


Слушать онлайн One Way Mule


SilverchairOne Way Mule на Яндекс.Музыке


 
Ошибка в тексте? Выделите ошибку и нажмите Ctrl+Enter