#----------------------------------PLEASE NOTE---------------------------------#
#This file is the author's own work and represents their interpretation of the-#
#song. You may only use this file for private study, scholarship, or research.-#
#------------------------------------------------------------------------------#

Silverchair - London's Burning
Submitted By: Mikhailo


Standard Tuning: E A D G

Intro:
G|---------------------------------------|
D|---------------------------------------|
A|---------------------------------------|
E|--3-3-3--3-3---------------------------|

Main riff:
G|---------------------------------------|
D|---------------------------------------|
A|--------------------3-3-3-3--1-0-------|
E|--3-3-3-3--1-1-1-1----------------3-1--|

Chorus:
G|---------------------------------------|
D|---------------------------------------|
A|--------------------3-3-3-3--5-5-5-5---|
E|--3-3-3-3--1-1-1-1---------------------|

Bridge:
G|---------------------------------------|
D|---------------------------------------|
A|--------------------5-5-5-5------------|
E|--5-5-5-5--3-3-3-3-----------0-0-0-0---|

Outro:
G|---------------------------------------|
D|---------------------------------------|
A|---------------------------------------|
E|--3-3-3--3-3---------------------------|

================================================================================


Текст, аккорды и табулатура для песни "Londons Burning", исполняет "Silverchair".
Используемые в песне аккорды можно найти в разделе Как брать аккорды. Аккорды для шестиструнной гитары. Другие песни можно найти на нашем сайте, воспользовавшись алфавитным указателем вверху страницы.


 
Ошибка в тексте? Выделите ошибку и нажмите Ctrl+Enter