KEEP AWAY By GODSMACK
Intro
E :| ---------------- |
B :| ---------------- |
G :|*7-77-77-77-77777*|
D :|*x-xx-xx-xx-xxxxx*|
A :| 5-55-55-55-55555 |
D :| ---------------- |

Pre-Verse Riff
E :| ----------------|---------------- |
B :| ----------------|---------------- |
G :|*----------------|----------------*|
D :|*0---0-----3-3---|--5-5-5-6---53--*|
A :| 0---0-00033-3-xx|xx5-5-556-6653-- |
D :| 0---0-00033-3-xx|xx5-5-556-6653-- |

Main Verse riff
E :| ----------------|---------------- |
B :| ----------------|---------------- |
G :|*----------------|----------------*|
D :|*0---0-----3-3---|--5-5-5-6---53--*|
A :| 0---0---033-3---|xx5-5-5-6-6653-- |
D :| 0---0---033-3---|xx5-5-5-6-6653-- |

First Chorus
E :|----------------|----------------|----------------|---------------|
B :|3---3-33333-3-33|----------------|3---3-33333-3-33|---------------|
G :|2---2-22220-0-00|2-2-2-222x3-3-33|2---2-22220-0-00|---------------|
D :|0---0-0000x-x-xx|2-2-2-222x3-3-33|0---0-0000x-x-xx|7-7-7-778|
A :|0---0-00003-3-33|0-0-0-000x1-1-11|0---0-00003-3-33|7-7-7-778|
D :|0---0-0000------|----------------|0---0-0000------|7-7-7-778|

     Play 3x
E :| ----------------|---------------- |
B :| 3---3-33333-3-33|---------------- |
G :|*2---2-22220-0-00|2-2-2-222x3-3-33*|
D :|*0---0-0000x-x-xx|2-2-2-222x3-3-33*|
A :| 0---0-00003-3-33|0-0-0-000x1-1-11 |
D :| 0---0-0000------|---------------- |

     Then
E :|----------------|----------------|----------------|
B :|3---3-33333-3-33|----------------|----rings-out---|
G :|2---2-22220-0-00|2-2-2-222x3-3-35|----------------|
D :|0---0-0000x-x-xx|2-2-2-222x3-3-35|0---------------|
A :|0---0-00003-3-33|0-0-0-000x1-1-13|0---------------|
D :|0---0-0000------|----------------|0---------------|

Bridge
E :|----------------| --Play-16x------ |
B :|--hit-chord-----| ---------------- |
G :|------again-----|*77777-77777-----*|
D :|0---------------|*77777-66666-----*|
A :|0---------------| 55555-55555----- |
D :|0---------------| ---------------- |

Solo
Key:    ^  Bend up       r  Release bend       ~  Vibrato
        p  Pull-off      h  Hammer-on
E :---------------------------------------------------------------
B :---------------------------------------------------------------
G :13^14~~~--13^14~~~--13^14~~~--12^14r12p10--10-12-10^12r10p7--7-
D :----------x------------------------------12----------------10--
A :----------x----------------------------------------------------
E :---------------------------------------------------------------
             ^string rake
E :-------------------------------------------------
B :---------------6^8r6-3---------------------------
G :-----------------------5p2h5p2h5/7^8r7p5-7~~~~~--
D :-------------------------------------------------
A :8^10r8p5p0h3h5-----------------------------------
E :-------------------------------------------------

E :-----10--101210----------------13--13-1313131313-
B :13^15--13------13-13^15r14^15~~~~--15-1515151515-
G :-------------------------------------------------
D :-----------------------------------^still-bent---
A :-------------------------------------------------
E :-------------------------------------------------

if you have any questions or comments email me at 
[email protected]



[email protected]
Get your FREE download of MSN Explorer at http://explorer.msn.com/intl.asp





Текст, аккорды и табулатура для песни "Keep Away", исполняет "Silverchair".
Используемые в песне аккорды можно найти в разделе Как брать аккорды. Аккорды для шестиструнной гитары. Другие песни можно найти на нашем сайте, воспользовавшись алфавитным указателем вверху страницы.


 
Ошибка в тексте? Выделите ошибку и нажмите Ctrl+Enter