#----------------------------------PLEASE NOTE---------------------------------#
#This file is the author's own work and represents their interpretation of the-#
#song. You may only use this file for private study, scholarship, or research.-#
#------------------------------------------------------------------------------#

Silverchair - Faultline
Submitted By: Mikhailo

Standard Tuning: E A D G

G|--------------------------------------------------------------------------------------------|
D|--0-2-3------------------7-5-4-5-4-0-------5-3--2-2-3-2---------5--3-2-2-3-2----------------|
A|-------------------5-5-5---------------3-----------------3----3---------------3-------------|
E|----------5-5-5-5---------------------------------------------------------------------------|

G|--------------------------------------------------------------------------------------------|
D|--0-2-3-------------7-5-4-5-4--0----5--3--2-2-3-2--------5--3-2-2-3-2-----0-2-3-------------|
A|--------------5-5-5---------------3----------------3--3----------------3--------------------|
E|------5-5-5-5--------------------------------------------------------------------5-5--5-5---|

G|--------------------------------------------------------------------------------------------|
D|--0-2-3--3-/-5--5--0-2-3--------------------------------------------------------------------|
A|-------------------------------------------------------1-1-------------------------1-1------|
E|-------------------------5-3-3-5--0-0-0--3-3-3--1-1-1------55--0-0-0--3-3-3--5-5-5-----5-5--|

G|------------------------------------2-2-2-2--3-3-3----------------/2-2-2-2--3-3-3--5--------|
D|--------------------------------0-0-----------------5-5-5-5---0-0--------------------3-5-5--|
A|--1-1-1--3-3-3-3--1-1-----------------------------------------------------------------------|
E|------------------------5-3-3-5-------------------------------------------------------------|

G|--------------------------------------------------------------------------------------------|
D|-----------7-5-4-5-4--0------5-3-2-2-3-2------------5-3-2-2-3-2------0 2 3------------------|
A|--5-5-5------------------3----------------3----3-----------------3--------------------------|
E|--------------------------------------------------------------------------------5-5-5-5-----|
 
G|--------------------------------------------------------------------------------------------|
D|------------7-5-4-5-4-0-----5-3-2-2-3-2--------5-3-2-2-3-2---0-2-3-----------0-2-3--3-/-5---|
A|--5-5-5-5-5--------------3---------------3--3--------------3--------------------------------|
E|--------------------------------------------------------------------5-5-5-5-----------------|

G|--------------------------------------------------------------------------------------------|
D|--0-2-3-------------------------------------------------------------------------------------|
A|-----------------1-1-----------------------1-1--------------------------1-1-1-----3-3-3-3---|
E|--------5-3-3-5-------0-0-0--3-3-3--1-1-1-------55--0-0-0--3-3-3--5-5-5-------5 5-----------|

G|----------------------2-2-2-2---3-3-3-----------------/-2-2-2-2-----3-3-3----5--------------|
D|-----------------0-0------------------5-5-5-5----0-0-----------------------------3--5--5----|
A|--1-1---------------------------------------------------------------------------------------|
E|-------5-3-3--5-----------------------------------------------------------------------------|

G|-------2-2-2-2---3-3-3----------------/-2-2-2-2---3-3-3---5---------------------------------|
D|--0-0-------------------5-5-5-5--0-0-------------------------3-5-5---------0~-0-------------|
A|--------------------------------------------------------------------------------------------|
E|------------------------------------------------------------------------------------0-3^----|

G|--------------------------------------------------------------------------------------------|
D|--------------------------------------------------------------------------------------------|
A|--------------------------------------------------------------------------------------------|
E|--0-0-0-0-5-4-3---3-0-3--0-5---0-0-0-0-5-4-3---3-0-3--0-5-----0-0-0-0-5-4-3---3-0-3--0-5----|

G|--------------------------------------------------------------------------------------------|
D|--------------------------------------------------------------------------------------------|
A|--------------------------------------------------------------------------------------------|
E|--0-0-0-0-5-4-3---3-0-3--0-5---0-0-0-0-5-4-3---3-0-3--0-5-----0-0-0-0-5-4-3---3-0-3--0-5----|

G|--------------------------------------------------------------------------------------------|
D|--------------------------------------------------------------------------------------------|
A|------------------------------------------------------------------------------3~-3~-3~-3~---|
E|--0-0-0-0-5-4-3---3-0-3--0-5---0-0-0-0-5-4-3---3-0-3--0-5-----0-0-6-5-3-0-3-5---------------|

G|--------------------------------------------------------------------------------------------|
D|--------------------------------------------------------------------------------------------|
A|--------------------------------------------------------------------------------------------|
E|--0~-0~-0~-0~---------0000000000000000---------0000000000000000----------0000000000000000---|

G|--------------------------------------------------------------------------------------------|
D|--------------------------------------------------------------------------------------------|
A|--------------------------------------------------------------------------------------------|
E|--0000000000000000----------0000000000000000--------0000000000000000---------00000000-------|

G|--------------------------------------------------------------------------------------------|
D|--------------------------------------------------------------------------------------------|
A|-----------------------------------3--------------------------3-------------------------3---|
E|--00000000----0-0-5-0-3-3-3-0-3-5-------0-0-5-0-3-3-3-0-3-5------0-0-5-0-3-3-3---0-3-5------|

G|--------------------------------------------------------------------------------------------|
D|--------------------------------------------------------------------------------------------|
A|----------------------3h5------------------------3-----------------------3------------------|
E|--0-0-5-0-3-3-3-0-3-5-------0-0-5-0-3-3-3-0-3-5-----0-0-5-0-3-3-3-0-3-5-----0-0-5-0-3-3-3---|

G|--------------------------------------------------------------------------------------------|
D|--------------------------------------------------------------------------------------------|
A|----------3------------------------3~-------3-----3/5~-----5--------------------------------|
E|--0-3-5--------0-0-0--6-5-3--0-3-5------------------0~-----0--------------------------------|

================================================================================


Текст, аккорды и табулатура для песни "Faultline", исполняет "Silverchair".
Используемые в песне аккорды можно найти в разделе Как брать аккорды. Аккорды для шестиструнной гитары. Другие песни можно найти на нашем сайте, воспользовавшись алфавитным указателем вверху страницы.


Слушать онлайн Faultline


SilverchairFaultline на Яндекс.Музыке


 
Ошибка в тексте? Выделите ошибку и нажмите Ctrl+Enter