------------------------------------------------------------------------------- 
                   WORLD FULL OF HATE - Sick Of It All 
------------------------------------------------------------------------------- 

By: Punk Rock Bob ( [email protected] ) 

INTRO/VERSE 
G|---------------------------------------------------------------------------| 
D|---------------------------------------------------------------------------| 
A|---------------------------------------------------------------------------| 
E|--0000-3333-0000-1111-0000-3333-0000-3-5-3---------------------------------| 

CHORUS 
G|---------------------------------------------------------------------------| 
D|---------------------------------------------------------------------------| 
A|-----LET RING--------------------------------------------------------------| 
E|--0------------33-3-5-3----------------------------------------------------| 

AFTER-CHORUS PART (BRIDGE?) 
G|---------------------------------------------------------------------------| 
D|---------------------------------------------------------------------------| 
A|---------------------------------------------------------------------------| 
E|--00-33-00-3-5-6-5---------------------------------------------------------| 

OUTRO 
G|---------------------------------------------------------------------------| 
D|---------------------------------------------------------------------------| 
A|---------------------------------------------------------------------------| 
E|--3-5-3-0------------------------------------------------------------------| 

-------------------------------------------------------------------------------


Текст, аккорды и табулатура для песни "World Full Of Hate", исполняет "Sick Of It All".
Используемые в песне аккорды можно найти в разделе Как брать аккорды. Аккорды для шестиструнной гитары. Другие песни можно найти на нашем сайте, воспользовавшись алфавитным указателем вверху страницы.


 
Ошибка в тексте? Выделите ошибку и нажмите Ctrl+Enter