A                                            
E---------------------------------
H|-----1010  10 10  10101010 10 10  10101010-|
G|-----9- 9  -9--9 -9-9- 9-9--9--9- 9-9-9-9---|
D|-----7 -7  -7--7--7-7--7-7 -7 -7 -7-7-7-7--| 
A---------------------------------|
E---------------------------------|
           a-a                                            

      F#                                
E----------------------
H|7-7-7-7-7-7-7-7-7-7-7-7-7-7
G|6-6-6-6-6-6-6-6-6-6-6-6-6-6--
D|4-4-4-4-4-4-4-4-4-4-4-4-4-4-- 
A------------------------
E-------------------------
          a-a 
F#                                
E-----------------------------------------------------------
H---8-8-8-8-8-8-8-8-8-8-8-8-8-8-8-8-8-8-8-8-8-8-8-8-8-8-8-8
G- -7-7-7-7-7-7-7-7-7-7-7-7-7-7-7-7-7-7-7-7-7-7-7-7-7-7-7-7
D|  5-5-5-5-5-5-5-5-5-5-5-5-5-5-5-5-5-5-5-5-5-5-5-5-5-5-5-5 
A------------------------------------------------------
E--------------------------------------------------------------
   a-a                                      hi!   hi!    hi! Х 3р    
                                  4 -й раз (One! Two! Tree! Four!) 


B              D#       Gm     E
All roads lead the same direction
we all see eye to eye
won´t stand for a bad connection
we came to keep things tight
prove this, prove that
proving is nothing
let´s all just be ourselves
focused with the right aggression

A         F#      Gm
turn to each other for help
people merge on state of mind from all
different walks of life
don´t need any more stupid division
don´t need to feel uptight
Gm
BROTHER – 
D#              C
I´ll always look out for you
Gm           A#
if I feel it back
A#
SISTER – 
we´ll brave the outside world
off the beaten track

A#                D#    C    
WHEN IT´S US VERSUS THEM
Gm                          A#     
YOU CAN ALWAYS COUNT ON ME
WHEN IT´S US VERSUS THEM
IT´S A GLOBAL UNITY

open the extended family
the family is growing fast
friendship will transcend the borders
the world is shrinking fast

cities merge on state of mind
there´s nothing wrong with that
don´t need any more stupid division
don´t fall for their trap

BROTHER - I´ll always look out for you
If I feel it back
SISTER - we´ll brave the outside world
off the beaten track


Текст, аккорды и табулатура для песни "US vs. Them", исполняет "Sick Of It All".
Используемые в песне аккорды можно найти в разделе Как брать аккорды. Аккорды для шестиструнной гитары. Другие песни можно найти на нашем сайте, воспользовавшись алфавитным указателем вверху страницы.


Слушать онлайн Us Vs. Them


Sick Of It AllUs Vs. Them на Яндекс.Музыке


 
Ошибка в тексте? Выделите ошибку и нажмите Ctrl+Enter