------------------------------------------------------------------------------- 
                 THE BLOOD AND THE SWEAT - Sick Of It All 
------------------------------------------------------------------------------- 

By: Punk Rock Bob ( [email protected] ) 

PART 1 
G|---------------------------------------------------------------------------| 
D|---------------------------------------------------------------------------| 
A|--------------3------3------3----------------------------------------------| 
E|--222-222-222----222----222------------------------------------------------| 

PART 2 
G|---------------------------------------------------------------------------| 
D|---------------------------------------------------------------------------| 
A|--------------------3-2-33--------------------5-3-2------------------------| 
E|--22-33-22-33-22-33---------22-33-22-33-22-33-------5----------------------| 

PART 3 
G|---------------------------------------------------------------------------| 
D|---------------------------------------------------------------------------| 
A|--22222222-33333333---------------------22222222-33333333-55555555-5-3-2---| 
E|--------------------3333-2222-3333-2222----------------------------------5-| 

SONG STRUCTURE: 
PART 1 
PART 2 
PART 3 
PART 1 
PART 3 
PART 2 
PART 1 

-------------------------------------------------------------------------------


Текст, аккорды и табулатура для песни "The Blood And The Sweat", исполняет "Sick Of It All".
Используемые в песне аккорды можно найти в разделе Как брать аккорды. Аккорды для шестиструнной гитары. Другие песни можно найти на нашем сайте, воспользовавшись алфавитным указателем вверху страницы.


 
Ошибка в тексте? Выделите ошибку и нажмите Ctrl+Enter