------------------------------------------------------------------------------- 
DESPERATE FOOL - Sick Of It All 
------------------------------------------------------------------------------- 

BY DJOLE [email protected] 

Intro 
E|----------------------------------------------------------------- 
B|----------------------------------------------------------------- 
C|----------------------------------------------------------------- 
D|--4-4--6-6-6-6--------------------------------------------------- 
A|--2-2--4-4-4-4--------------------------------------------------- 
E|----------------------------------------------------------------- 

Verse 
E|---------------------------------------------------------------- 
B|---------------------------------------------------------------- 
C|---------------------------------------------------------------- 
D|--6-6-6-6--4-4-4-4--7-7-7-7--6-6-6-6---------------------------- 
A|--4-4-4-4--4-4-4-4--7-7-7-7--6-6-6-6---------------------------- 
E|-----------2-2-2-2--5-5-5-5--4-4-4-4---------------------------- 
|x2 
E|---------------------------------------------------------------- 
B|----------------------------------------------------------------/ 
C|---------------------------------------------------------------- 
D|--6-6-6-6--7-7-7-7--4-4-4-4--6-6-6-6---------------------------- 
A|--4-4-4-4--7-7-7-7--4-4-4-4--6-6-6-6---------------------------- 
E|-----------5-5-5-5--2-2-2-2--4-4-4-4---------------------------- 

Chorus 
E|----------------------------------------------------------------- 
B|----------------------------------------------------------------- 
C|----------------------------------------------------------------- 
D|--8-8-8-8--9-9-9-9---8-8-8--11-9-9-9-9---8-8-8--9-8-6-4--6-6-6-6- 
A|--6-6-6-6--7-7-7-7---6-6-6--9--7-7-7-7---6-6-6--7-6-4-2--4-4-4-4- 
E|----------------------------------------------------------------- 

E|----------------------------------------------------------------- 
B|----------------------------------------------------------------- 
C|----------------------------------------------------------------- 
D|--8-8-8-8--9-9-9-9---8-8-8--11-9-9-9-9---8-8-8-8-8--9-9-9-9-9---- 
A|--6-6-6-6--7-7-7-7---6-6-6--9--7-7-7-7---6-6-6-6-6--7-7-7-7-7---- 
E|----------------------------------------------------------------- 

E|----------------------------------------------------------------- 
B|----------------------------------------------------------------- 
C|----------------------------------------------------------------- 
D|--4-4-4-4-4--7-7-7-7-7------------------------------------------- 
A|--4-4-4-4-4--7-7-7-7-7------------------------------------------- 
E|--2-2-2-2-2--5-5-5-5-5------------------------------------------- 

Bridge 
E|----------------------------------------------------------------- 
B|----------------------------------------------------------------- 
C|----------------------------------------------------------------- 
D|--4-4-4-4-4-4--6---4-4-4-4-4-4--6-------------------------------- |x2 
A|--4-4-4-4-4-4--6---4-4-4-4-4-4--6--------------------------------/ 
E|--2-2-2-2-2-2--4---2-2-2-2-2-2--4-------------------------------- 

Verse -> 

Chorus -> 

Bridge -> 

Outro 
E|----------------------------------------------------------------- 
B|----------------------------------------------------------------- 
C|----------------------------------------------------------------- 
D|--3-3-3-3-3-3--6--3-3-3-3-3-3--6--3-3-3-3-3-3--6---7-7-6--7-7-6-- |x4 
A|--3-3-3-3-3-3--6--3-3-3-3-3-3--6--3-3-3-3-3-3--6---7-7-6--7-7-6--/ 
E|--1-1-1-1-1-1--4--1-1-1-1-1-1--4--1-1-1-1-1-1--4---5-5-4--5-5-4-- 

E|-----------------------------------------------------------------|| 
B|-----------------------------------------------------------------|| 
C|-----------------------------------------------------------------|| 
D|--3-3-3-3-3-3--6-------------------------------------------------|| 
A|--3-3-3-3-3-3--6-------------------------------------------------|| 
E|--1-1-1-1-1-1--4-------------------------------------------------|| 

-------------------------------------------------------------------------------


Текст, аккорды и табулатура для песни "Desperate Fool", исполняет "Sick Of It All".
Используемые в песне аккорды можно найти в разделе Как брать аккорды. Аккорды для шестиструнной гитары. Другие песни можно найти на нашем сайте, воспользовавшись алфавитным указателем вверху страницы.


Слушать онлайн Desperate Fool


Sick Of It AllDesperate Fool на Яндекс.Музыке


 
Ошибка в тексте? Выделите ошибку и нажмите Ctrl+Enter