Artist      : Sheila on 7
Judul       : Pria Kesepian
Album       : 07 Des
Tabbed by  sigit aribowo 

    A    A7        D    D7
Eb--5-5--5-5--x-x--5-5--5--5-5-5-5-x-x----
Bb--5-5--5-5--x-x--7-7--7--7-7-7-7-x-x----
Gb--6-6--6-6--x-x--7-7--5--5-5-5-5-x-x----
Db--7-7--5-5--x-x--7-7--7--7-7-7-7-x-x---- 2x
Ab--7-7--7-7--x-x--5-5--5--5-5-5-5-x-x----
Eb--5-5--5-5--x-x------------------x-x----

 A
Kami adalah pria-pria kesepian
         D 
Jauh dari rumah dan ditinggalkan cinta 
E                                      D      A
Coba dengar keluhan kami... pria kesepian


    A    A7        D    D7
Eb--5-5--5-5--x-x--5-5--5--5-5-5-5-x-x----
Bb--5-5--5-5--x-x--7-7--7--7-7-7-7-x-x----
Gb--6-6--6-6--x-x--7-7--5--5-5-5-5-x-x----
Db--7-7--5-5--x-x--7-7--7--7-7-7-7-x-x---- 2x                                
Ab--7-7--7-7--x-x--5-5--5--5-5-5-5-x-x----
Eb--5-5--5-5--x-x------------------x-x----

A     G#/E    F#m     E  D   E         A
Ku t'lah berjanji akan s'lalu menjagamu
A     G#/E      F#m          E  D     E          A
Tapi kau s'lalu pergi bersama kekasih barumu...
         Dmaj7         F#m     E     A
Na... Na... Na...
A           G#/E   E        D         E     A
Ku t'lah berjanji dapat cinta malam ini
A     G#/E          F#m     E    D   E         A
Tapi hujan badai telah datang menemaniku
Reff:
 A     G#/E    F#m  E       D    E          A
Menikmati pedihnya cinta... pria kesepian
 A     G#/E     F#m E       D       E       A
Menikmati dinginnya hati... pria kesepian
         Dmaj7         F#m     E     A
Na... Na... Na...
Let's go...


Eb---------------------------------------------------------
Bb-10-9-----------------------10-9-------------------------
Gb------11-9-------------9-11------11-9-------------9-11-9-
Db-----------11/9/79-11----------------11/9/79-11--------
Ab---------------------------------------------------------
Eb---------------------------------------------------------

Eb------------------
Bb------------------
Gb------------------
Db-11----9/79-7~--- 2x
Ab----12------------
Eb------------------



         Dmaj7                           F#m
Apakah diriku terlalu wibawa dan tampan
           E
Untuk selalu kau miliki...
         Dmaj7
Pastilah...



    A    A7        D    D7
Eb--5-5--5-5--x-x--5-5--5--5-5-5-5-x-x----
Bb--5-5--5-5--x-x--7-7--7--7-7-7-7-x-x----
Gb--6-6--6-6--x-x--7-7--5--5-5-5-5-x-x----
Db--7-7--5-5--x-x--7-7--7--7-7-7-7-x-x---- 
Ab--7-7--7-7--x-x--5-5--5--5-5-5-5-x-x----
Eb--5-5--5-5--x-x------------------x-x----

    A    A7        D    D7
Eb--5-5--5-5--x-x--5-5--5--5-5-5-5-x-x---5-
Bb--5-5--5-5--x-x--7-7--7--7-7-7-7-x-x---5-
Gb--6-6--6-6--x-x--7-7--5--5-5-5-5-x-x---6-
Db--7-7--5-5--x-x--7-7--7--7-7-7-7-x-x---7- 
Ab--7-7--7-7--x-x--5-5--5--5-5-5-5-x-x---7-
Eb--5-5--5-5--x-x------------------x-x---5-


-end of tab

Album       : Paradox
Tabbed by   : Sigit Aribowo
From        : Pontianak-kalimantan Barat
E-Mail      : [email protected]


 with electric gitar (distortion)

     F                  G                  E
|-----------/5-----------------/5--3~---------------/5--3~--3(5)b--|
|--------6------6~----------6------------------6-------------------|
|----/7-----------------/7-----------------/7----------------------|
|------------------------------------------------------------------|
|------------------------------------------------------------------|
|------------------------------------------------------------------| 

     F          G      E 
|-----------/5--3~--1-------------|
|--------6-------------3--2--3----|
|----/7---------------------------|
|---------------------------------|
|---------------------------------|
|---------------------------------| 

 with electric gitar (clean)
|----------5--------5--------5--------3--------3--------3--------3--------5-|
|-------6--------6--------6--------3--------3--------3--------3--------6----|
|----7--------6--------5--------4--------3--------2--------1--------7-------|
|---------------------------------------------------------------------------|
|---------------------------------------------------------------------------|
|---------------------------------------------------------------------------|

 dengan electric gitar (distortion)
        D5         G5         C5         A5         D5         G5 
|-------------------------------------------------------------------------|
|-------------------------------------------------------------------------|
|--7----777-77-77-------------555-55-55-------------777-77-77-------------|
|--7----777-77-77--555-55-55--555-55-33--777-77-77--777-77-77--555-55-55--|
|--5----555-55-55--555-55-55--333-33-33--777-77-77--555-55-55--555-55-55--|
|--x----xxx-xx-xx--333-33-33--xxx-xx-xx--555-55-55--xxx-xx-xx--333-33-33--| 

   C5
|------------------|
|------------------|
|--555-55-55-5/8---|
|--555-55-55-5/8---|
|--333-33-33-3/6---|
|--xxx-xx-xx-x-x---| 

dengan electric gitar (clean)

|---------5--------5--------5--------3--------3--------3--------3--------5-
|------6--------6--------6--------3--------3--------3--------3--------6----
|---7--------6--------5--------4--------3--------2--------1--------7-------
|--------------------------------------------------------------------------
|--------------------------------------------------------------------------
|--------------------------------------------------------------------------

 with electric gitar (distortion)
        D5         G5         C5         A5         D5         G5 
|-------------------------------------------------------------------------|
|-------------------------------------------------------------------------|
|--7----777-77-77-------------555-55-55-------------777-77-77-------------|
|--7----777-77-77--555-55-55--555-55-33--777-77-77--777-77-77--555-55-55--|
|--5----555-55-55--555-55-55--333-33-33--777-77-77--555-55-55--555-55-55--|
|--x----xxx-xx-xx--333-33-33--xxx-xx-xx--555-55-55--xxx-xx-xx--333-33-33--| 

   C5
|------------------|
|------------------|
|--555-55-55------- repeat 2 times
|--555-55-55-------|
|--333-33-33-------|
|--xxx-xx-xx-------| 

 with electric gitar (distortion)
     F                  G                  E
|-----------/5-----------------/5--3~---------------/5--3~--3(5)b--|
|--------6------6~----------6------------------6-------------------|
|----/7-----------------/7-----------------/7----------------------|
|------------------------------------------------------------------|
|------------------------------------------------------------------|
|------------------------------------------------------------------| 

     F     G E 
|-----------/5--3~--1-------------|
|--------6-------------3--2--3----|
|----/7---------------------------|~~~~~~~~~~~~~~ 
|---------------------------------|
|---------------------------------|
|---------------------------------| 

|---------------|
|---------------|
|---7---7---7---|
|---7---7---7---|
|---5---5---5---|
|---x---x---x---| 

 with electric gitar (distortion)

        D5         G5         C5         A5         D5         G5 
|-------------------------------------------------------------------------|
|-------------------------------------------------------------------------|
|--7----777-77-77-------------555-55-55-------------777-77-77-------------|
|--7----777-77-77--555-55-55--555-55-33--777-77-77--777-77-77--555-55-55--|
|--5----555-55-55--555-55-55--333-33-33--777-77-77--555-55-55--555-55-55--|
|--x----xxx-xx-xx--333-33-33--xxx-xx-xx--555-55-55--xxx-xx-xx--333-33-33--| 

   C5
|------------------|
|------------------|
|--555-55-55-------| repeat 3 times
|--555-55-55-------|
|--333-33-33-------|
|--xxx-xx-xx-------| 

 with electric gitar (distortion)
F G E
|-----------/5-----------------/5--3~---------------/5--3~--3(5)b--|
|--------6------6~----------6------------------6-------------------|
|----/7-----------------/7-----------------/7----------------------|
|------------------------------------------------------------------|
|------------------------------------------------------------------|
|------------------------------------------------------------------| 

F G E 
|-----------/5--3~--1-------------|-E-----|
|--------6-------------3---2------|-N-----| 
|----/7---------------------------|-D-O---| 
|---------------------------------|---F-T-| 
|---------------------------------|-----A-|
|---------------------------------|-----B-| 

TAB KEY -
h = hammer-on 
b = bend 
/ = slide up 
~ = vibrato 


Intro
Verse:
Ku.... rasakan semua pedihmu
Saat kau panggil namaku
Berhenti dalam sepimu
Namun sayangnya kau kini
Tak dapat lagi ku sentuh
Tak mungkin pula ku regut
Walau besarnya ingin ku.......woooo
Reff:
Maafkan bila aku tiada lagi disisi
Kita terpisah ruang dan waktu 

Verse2:
Tangis.... takkan sanggup mengulang lagi
Semua penyesalan dihati
Hanya lahirkan nestapa
Bila waktu memihakku
Harusnya ku bilang sayang
Harusnya ku bilang cinta
Karna semua milikmu......wooo

Reff2
Maafkan bila aku tiada lagi disisi
Kita terpisah ruang dan waktu
Mengapa jalani mimpi 
Walau tak bersamaku
Bahagiamu damaikan jiwaku
Fill

Reff3
Ho......ww
maafkan bila aku tiada lagi disisi
Kita terpisah ruang dan waktu
Ho......ww
Hengapa jalani mimpi (mimpi kita)
Walau tak bersamaku (bersamaku)
Bahagiamu damaikan jiwaku
Maafkan bila aku (bila aku)
Tiada lagi disisi (disisimu)
Tetaplah kau jalani mimpimu......wo..ho..ah..

---------------THANKS---------------

-end of tab


Текст, аккорды и табулатура для песни "Pria Kesepian", исполняет "Sheila On 7".
Используемые в песне аккорды можно найти в разделе Как брать аккорды. Аккорды для шестиструнной гитары. Другие песни можно найти на нашем сайте, воспользовавшись алфавитным указателем вверху страницы.


 
Ошибка в тексте? Выделите ошибку и нажмите Ctrl+Enter