To live and die in L.A.


Intro:
  Fmaj7            Em7   Am7
e|0---------------|0-----0---------|
B|1---------------|3-----1-----1-3-|
G|2---------------|0-----0---------| >repeat twice
D|3---------------|2-----2---------|
A|x---------------|2-----0---------|
E|x---------------|0-----x---------|

G|----------------|----------------|
D|0---------------|------3-3-------|
A|----------------|3---------------|
E|----------------|----------------| 
                                      >repeat once
G|----------------|----------------| /
D|0---------------|------3-3-------|/
A|----------------|3-----------2-3-|
E|----------------|----------------|

Verse
  Fmaj7            Em7   Am7
e|0-0-0-0-0-0-0-0-|0-0-0-0-0-0-0-0-|
B|1-1-1-1-1-1-1-1-|3-3-3-1-1-1-1-1-| 
G|2-2-2-2-2-2-2-2-|0-0-0-0-0-0-0-0-|  iiiiiiii iiii iiiiiiii iiii 
D|3-3-3-3-3-3-3-3-|2-2-2-2-2-2-2-2-|  /iiiiiiiii iiiiiiii
A|x-x-x-x-x-x-x-x-|2-2-2-0-0-0-0-0-| /
E|x-x-x-x-x-x-x-x-|0-0-0-x-x-x-x-x-|/

G|----------------|----------------|
D|0-----0-0-020---|----2-2-3-3-----|
A|-----0----------|3-3---------3-3-|
E|----------------|----------------| 
                                      >IIII II IIII II IIIIi IIII
G|----------------|----------------| /
D|0-----0-0-020---|------3-3-3-----|/
A|-----0----------|3-3---------2-3-|
E|----------------|----------------|

tempo=moderate funk=87
tabbed by Konrad Kosieniak-Madejski


Текст, аккорды и табулатура для песни "To Live And Die In La", исполняет "Shakur Tupac".
Используемые в песне аккорды можно найти в разделе Как брать аккорды. Аккорды для шестиструнной гитары. Другие песни можно найти на нашем сайте, воспользовавшись алфавитным указателем вверху страницы.


 
Ошибка в тексте? Выделите ошибку и нажмите Ctrl+Enter