-------------------------------------------------------------------------------
			     Thugz Mansion – Tupac Shakur
-------------------------------------------------------------------------------
Tabbed by: tim lawson
Email: [email protected]

Very nice repeated acoustic riff in the acoustic version of Thugz Mansion. Found
some pretty weird versions on the web, also quite uncomfortable to play. I
decided to make a little more easy tab cuz I reckon a lot of beginners like to
play this song too. Anyway, my version sounds the most accurate i’ve seen
anywhere on the web so please take a look.

Tuning: standard tuning (EADGBE)

This song is fingerpicked/plucked.

    A#                                Cm
e|----------------------------------------------------------6p4h6------------|
B|---------------------------------------4-------4------4/6------------------|
G|--------5-----5------------------------5-------5---------------------------|
D|--------6-----5------5h6p5---5---------5-------5---------------------------|
A|--------6-----6------------6-------3-------3-------------------------------|
E|----4------4-------4-------------------------------------------------------|

   Bbm       Cm     C#                  Bbm     Cm     C#
e|-----------------------------------------------------5/6-----6-------------|
B|--2--------4------5/6--------6--------2-------4------5/6--------6----------|
G|--3--------5------5/6--------6--------3-------5------5/6----------(6)------|
D|--3--------5------5/6--------6--------3-------5------5/6-------------------|
A|--1--1------------3/4------4---4------1--1-----------3/4-------------------|
E|---------------------------------------------------------------------------|

This part is repeated over and over.

- Make the A# and the Cm sound stacato.
- You can play a little with the small licks inbetween.
- Trouble with your fingerpositioning? Play the indicated chords as you would
play them in bare.


| /  slide up
|   slide down
| h  hammer-on
| p  pull-off
| ~  vibrato
| +  harmonic
| x  Mute note

===============================================================================
That’s it for thugz mansion. Feel free to mail me your feedback at
[email protected]


Текст, аккорды и табулатура для песни "Thugz Mansion Acoustic", исполняет "Shakur Tupac".
Используемые в песне аккорды можно найти в разделе Как брать аккорды. Аккорды для шестиструнной гитары. Другие песни можно найти на нашем сайте, воспользовавшись алфавитным указателем вверху страницы.


Слушать онлайн Thugz Mansion


2PacThugz Mansion на Яндекс.Музыке


 
Ошибка в тексте? Выделите ошибку и нажмите Ctrl+Enter