Shakira 
Te aviso te anuncio  Соlавоrасiуn de Javier Maldonado 
[email protected]  
  shak0311  
calidad      texto     
Aqui esta completita con acordes , solo y punteo. Me тоmу mucho trabajo.
Javier Maldonado. OSO	


 INTRO DESPUES DEL ACORDEON	
F# - Bm    F# - Bm
	e-----------------
	B-----------------
	G-----------------
	D-4-4-2-2-0-0-----
	A-----------4-4-2-   
	E-----------------

	
	Bm		  A		Bm
 	Nunca pense que doliera el amor asi
 	 
	Bm			A	         Bm
	cuando se entierra en el medio de un no y un si

	A                     G      Bm 
  	es un dia ella y otro dia yo

 			 A    G     F#
 	me estas dejando sin corazon y cero de razon


	CORO
	       Bm         A          G               F#
 	Ay te aviso, te anuncio que hoy renuncio / a tus negocios sucios
  	
 	     Bm         A          G         F#
	ya sabes que estoy de ti vacunada / a prueba de patadas
 
 	    Bm         A       G          F#
 	por ti me quede como Monalisa / sin llanto y sin sonrisa

 	        Bm         A          G              
  	que el cielo y tu madre cuiden de ti... 

 	F#               Bm (rasgueo/golpe 7 veces)     
  	me voy / sera mejor asi


        BREAK
        F# - Bm    F# - Bm

	e-----------------
	B-----------------
	G-----------------
	D-4-4-2-2-0-0-----
	A-----------4-4-2-   
	E-----------------
   	

	Bm		  A		Bm
 	Se que olvidarte no es asunto sencillo
	
	Bm		  A		Bm
	te me clavaste en el cuerpo como un cuchillo
  	
	A                     G      Bm 
	pero todo lo que entra ha de salir
  	
 			A    G     F#
	y los que еsтбn теndrбn que partir
  	empezando por mi

	

	CORO
	       Bm         A          G               F#
 	Ay te aviso, te anuncio que hoy renuncio / a tus negocios sucios
  	
 	     Bm         A          G         F#
	ya sabes que estoy de ti vacunada / a prueba de patadas
 
 	    Bm         A       G          F#
 	por ti me quede como Monalisa / sin llanto y sin sonrisa

 	        Bm         A          G              
  	que el cielo y tu madre cuiden de ti... 

 	F#          
  	me voy  oh no no no.........


	PUENTE	
	Em                    Bm
        Tal vez tu no eres ese para mi
       	
	Em                    Bm	
	No se como se puede еngасаr asi

      	    A  G   F#
	Pero era asi


	SIN ACORDES
	АСОМРАСА EL SIGUIENTE PUNTEO. HAZLO 2 VECES
	
	e--------------------------------------------------------------------
	B--------------------------------------------------------------------
	G--------------------------------------------------------------------
	D--------------------------------------------------------------------
	A-2-2-4-4-5-5-7-7-9-9-10-10-9-9-7-7 * 2-2-4-4-5-5-4-4----4-4-5-5-4-4-
	E----------------------------------------------------3-3-------------
  
	Es tan patetico
  	neurotico
  	satirico
  	psicotico
  	que no lo ves / el tango no es de tres
  	llevo еngасаndо a este par y me sale al reves 
        pero voy a intentarlo una y 
  	otra vez


	SOLO (DESPUES DE LA ESTROFA SIN ACORDES)
	LOS ACORDES PARA АСОМРАСАR SON Bm-A-G-F#

	e-------------------------------------------------------
	B-------------------------------------------------------
	G-------------------------------------------------------
	D-------------------------------------------------------
	A 2-2-2-2-2-2-2-5-5-5-5-5-5----------5/7--5/7--5/7--5/2-
	E---------------------------3-3-3-3-3-3-----------------


	e------------------------------------------------------------------
	B------------------------------------------------------------------
	G------------------------------------------------------------------
	D------------------------------------------------------------------
	A--2-2-2-2-2-2-5-5-5-5-5-5-7-7-7-7-7-7-7-9-9-9-9-9-9-9-9-7-7-5-5-4-
	E------------------------------------------------------------------


	CORO
         
	Bm-A-G-F#	
	Ay te aviso, te anuncio que hoy renuncio / a tus negocios sucios
  	por ti me quede como Monalisa / sin llanto y sin sonrisa
  	te aviso que estoy de ti vacunada / y no me importa nada
  	que el cielo y tu madre cuiden de ti / me voy sera mejor asi
  	ya me voy... ya me fui
  	es mejor asi

	Bm-A-G-F#
  	Ay que el cielo y tu madre cuiden de ti... me voy
  	hay que el cielo y tu madre cuiden de ti... me voy sera mejor asi


Esta es mi segunda transcripcion, espero que este correcta. Cualquier duda
o comentario manda un mail a  [email protected]
OSO

 
Este fichero es trabajo propio de su transcriptor y representa su inтеrрrетасiуn
personal de la саnсiуn. El usuario se compromete a utilizar este material ъniсаmеnте
para su aprendizaje y estudio personal. Para poder incluir este fichero en otro sitio
Web, es necesario mencionar la procedencia del mismo (www.atame.org) аsн como el nombre
y correo del transcriptor. 

Copied from atame.org
Very very special thanks to Javier Maldonado.


Текст, аккорды и табулатура для песни "Te Aviso Te Anuncio", исполняет "Shakira".
Используемые в песне аккорды можно найти в разделе Как брать аккорды. Аккорды для шестиструнной гитары. Другие песни можно найти на нашем сайте, воспользовавшись алфавитным указателем вверху страницы.


Слушать онлайн Te Aviso, Te Anuncio (Tango)


ShakiraTe Aviso, Te Anuncio (Tango) на Яндекс.Музыке


 
Ошибка в тексте? Выделите ошибку и нажмите Ctrl+Enter