Аккорды играть на баррэ.

 Intro: F# Hm


"It´s not her fault that she´s so irresistible..."

1|------------------------------------------|
2|------------------------------------------|
3|-4--2-------------------------------------|
4|-4--2-------------------------------------|
5|-2--0--0/2-2-0/2-2-0-0-0-5-4--------------|
6|------------------------------------------|


 Hm                      A             Hm    A
It´s not her fault that she´s so irresistible 
 Hm                      A             Hm    A
But all the damage she´s caused isn´t fixable 
 A                       G            Hm
Every twenty seconds you repeat her name
                     A   G          F# 
But when it comes to me you don´t care 
If I´m alive or dead 


Chorus:

      Hm        A          G         
So objection I don´t wanna be the exception
 F# 
To get a bit of your attention
   Hm           A          G 
I love you for free and I´m not your mother 
 F#
But you don´t even bother 
Objection I´m tired of this triangle 
Got dizzy dancing tango 
I´m falling apart in your hands again 
No way I´ve got to get away 

Next to her cheap silicon I look minimal 
That´s why in front of your eyes I´m invisible 
But you gotta know small things also count 
You better put your feet on the ground 
And see what it´s about 

Objection I don´t wanna be the exception 
To get a bit of your attention 
I love you for free and I´m not your mother 
But you don´t even bother 

Objection I´m tired of this triangle 
Got dizzy dancing tango 
I´m falling apart in your hands again 
No way no no no no

 Em                            Hm
I wish there was a chance for you and me 
 Em                            Hm
I wish you couldn´t find a place to be
 A    G    F# 
Away from here 


 "...This is pathetic and sardonic It´s sadistic and psychotic..." 
1|-----------------------------------------------------------------|
2|-----------------------------------------------------------------|
3|-----------------------------------------------------------------|
4|-------------2-2-4-4-4-5-4-2-------------------------------------|
5|-2-2-4-4-5-5-----------------5-4-2-2-4-4-5-5-4-4-----4-4-5-5-4-4-|
6|-------------------------------------------------3-3-------------|


This is pathetic and sardonic 
It´s sadistic and psychotic 
Tango is not for three 
Was never meant to be 

But you can try it 
Rehearse it 
Or train like a horse 
But don´t you count on me 
Don´t you count on me boy 

 Solo:

4|-----------------------------------------------------------------|
5|-2-2-2-2-2-2-2-2-5-5-5-5-5-5-5-5-----------------5-7-5-7-5-7-5-7-|
6|---------------------------------3-3-3-3-3-3-3-3-----------------|

4|-----------------------------------------------------------------|
5|-2-2-2-2-2-2-2-2-5-5-5-5-5-5-5-5-7-7-7-7-7-7-7-7-9-9-9-9-9-9-9-9-|
6|-----------------------------------------------------------------|



Objection I don´t wanna be the exception 
To get a bit of your attention 
I love you for free and I´m not your mother 
But you don´t even bother 

Objection I´m tired of this triangle 
Got dizzy dancing tango 
I´m falling apart in your hands again 
No way I´ve got to get away 


Текст, аккорды и табулатура для песни "Objection (tango)", исполняет "Shakira".
Используемые в песне аккорды можно найти в разделе Как брать аккорды. Аккорды для шестиструнной гитары. Другие песни можно найти на нашем сайте, воспользовавшись алфавитным указателем вверху страницы.


Слушать онлайн Objection (Tango)


ShakiraObjection (Tango) на Яндекс.Музыке


 
Ошибка в тексте? Выделите ошибку и нажмите Ctrl+Enter