intro                             band: shadows fall
--------------------------        song: thoughts without words
--------------------------        tabber: justo
-----210-55------210-55---        email: [email protected]
-320---------320----------    

verse
---------------------------------------------------3--
--------------------------------------------56-35-----
-----210-55------5----565-------210-55----------------
-320----------00---00-------320----------00-----------

-----------------
-----------------
---5--6--3--0--1- 
-00-00-00-00-00--

pre chorus
---------------------------------------|-----------
---------------------------------------|-----------
-----55-3/6---------------------55-3/6-|-----------
-510--------000-666-666-666-333--------|-0-----000-

chorus
-----------------------------------------------------------
------------------------------------------------1210-108---
-----------------------------10121312-----1012-------------
-000-8/7--05057-035-023--000------------00-----0---0-------

---------------------------
-------------------87---75-
-----78108-----78----------
-000--------00----0---0----

bridge
-----------------------------------------
------3----------------------------------
--353---53-------------------------------
-0---------56-6530--3-555-666-333-3530---

during first solo
---------------------------------------
---------------------------------------
---------------------------------------
-00000000000000--3-555-666-333-3530----

during second solo
--------------------------|-----------------|--------------
--------------------------|-----------------|--------------
-----210-55------5----565-|---5--6--3--0--1-|-------55-3/6-
-320----------00---00-----|-00-00-00-00-00--|-5-1-0---------

----------------------------|--------
----------------------------|--------
---------------------55-3/6-|--------
-000-666-666-666-333--------|-0--000-

ending
----------------------------
----------------------------
-----------------------10---
-0-000030-0000-0000-510--3--

------------------------------------
------------------------------------
------------------------10-----10---
-0-000030-0000-0000-510---3-510--3--

----------------------------
----------------------------
------------------------10--
-0-000030-0000-0000-510---3-

-------------------------------------------------------
-------------------------------------------------------
------------------------10-------10-------10-------10--
-0-000030-0000-0000-510---3--510---3--510---3--510---3-

thats it you can figuire the order out yourself but if you have any questions or
comments jsut email me at [email protected] adn well jsut enjoy the tab
I'm almost 100% sure its right so ya peace


Текст, аккорды и табулатура для песни "Thoughts Without Words", исполняет "Shadows Fall".
Используемые в песне аккорды можно найти в разделе Как брать аккорды. Аккорды для шестиструнной гитары. Другие песни можно найти на нашем сайте, воспользовавшись алфавитным указателем вверху страницы.


 
Ошибка в тексте? Выделите ошибку и нажмите Ctrl+Enter