Intro:                                                            
E||------------------|------------------|--2--2--2--2----2--2--2-2-|
B||------------------|------------------|--3--3--3--3----3--3--3-3-|
G||------------------|------------------|--2--2--2--2----2--2--2-2-|
D||------------------|------------------|--0--0--0--0----0--0--0-0-|
A||------------------|------------------|--------------------------|
E||------------------|------------------|--------------------------|
                                                      
--------------------------|--------------------------|
----------------5--5--5-5-|--3--3--3--3----3--3--3-3-|
--6--6--6--6----6--6--6-6-|--4--4--4--4----4--4--4-4-|
--6--6--6--6----6--6--6-6-|--4--4--4--4----4--4--4-4-|
--4--4--4--4----4--4--4-4-|--2--2--2--2----2--2--2-2-|
--------------------------|--------------------------|
                                                     
--------------------------|--2--2--2--2----2--2--2-2-|
--2--2--2--2----2--2--2-2-|--3--3--3--3----3--3--3-3-|
--2--2--2--2----2--2--2-2-|--2--2--2--2----2--2--2-2-|
--2--2--2--2----2--2--2-2-|--0--0--0--0----0--0--0-0-|
--0--0--0--0----0--0--0-0-|--------------------------|
--------------------------|--------------------------|
                                                      
--------------------------|--------------------------|
----------------5--5--5-5-|--3--3--3--3----3--3--3-3-|
--6--6--6--6----6--6--6-6-|--4--4--4--4----4--4--4-4-|
--6--6--6--6----6--6--6-6-|--4--4--4--4----4--4--4-4-|
--4--4--4--4----4--4--4-4-|--2--2--2--2----2--2--2-2-|
--------------------------|--------------------------|
Pre-Verse:                                                                      
--------------------------|-------------------------|--------------------------|
--------------------------|-------------------------|--------------------------|
--------------------------|-------------------------|--------------------------|
--2--2--4--2--2--2--4--2--|--2--2--4--2----2--4--2--|--2--2--4--2--2--2--4--2--|
--0--0--0--0--0--0--0--0--|--0--0--0--0----0--0--0--|--0--0--0--0--0--0--0--0--|
--------------------------|-------------------------|--------------------------|
                          Verse:                                                                               
-------------------------|--------------------------|-------------------------|
-------------------------|--------------------------|-------------------------|
-------------------------|--2--2--2--2--2--2--2--2--|--2--2--2--2----2--------|
--2--2--4--2----2--4--2--|--0--0--0--0--0--0--0--0--|--0--0--0--0----0--6--5--|
--0--0--0--0----0--0--0--|--------------------------|-------------------4--3--|
-------------------------|--------------------------|-------------------------|
                                                                                
--------------------------|-------------------------|--------------------------|
--------------------------|-------------------------|--------------------------|
--------------------------|-------------------------|--2--2--2--2--2--2--2--2--|
--4--4--4--4--4--4--4--4--|--4--4--4--4----4--5--6--|--0--0--0--0--0--0--0--0--|
--2--2--2--2--2--2--2--2--|--2--2--2--2----2--3--4--|--------------------------|
--------------------------|-------------------------|--------------------------|
                                                                               
-------------------------|--------------------------|-------------------------|
-------------------------|--------------------------|-------------------------|
--2--2--2--2----2--------|--------------------------|-------------------------|
--0--0--0--0----0--6--5--|--4--4--4--4--4--4--4--4--|--4--4--4--4----4--4--4--|
-------------------4--3--|--2--2--2--2--2--2--2--2--|--2--2--2--2----2--2--2--|
-------------------------|--------------------------|-------------------------|
Pre-Chorus:                                                      
--------------------------|--------------------------|
--------------------------|--------------------------|
--------------------------|--------------------------|
--------------------------|--2--2--2--2--2--2--2--2--|
--5--5--5--5--5--5--5--5--|--0--0--0--0--0--0--0--0--|
--3--3--3--3--3--3--3--3--|--------------------------|
                                                     
--------------------------|--------------------------|
--------------------------|--------------------------|
--------------------------|--------------------------|
--------------------------|--2--2--2--2--2--2--2--2--|
--5--5--5--5--5--5--5--5--|--0--0--0--0--0--0--0--0--|
--3--3--3--3--3--3--3--3--|--------------------------|
                                                      
--------------------------|--------------------------|
--------------------------|--------------------------|
--------------------------|--------------------------|
--------------------------|--------------------------|
--5--5--5--5--5--5--5--5--|--4--4--4--4--4--4--4--4--|
--3--3--3--3--3--3--3--3--|--2--2--2--2--2--2--2--2--|
                                                      
--------------------------|--------------------------|
--------------------------|--------------------------|
--------------------------|--------------------------|
--------------------------|--2--2--2--2--2--2--2--2--|
--5--5--5--5--5--5--5--5--|--0--0--0--0--0--0--0--0--|
--3--3--3--3--3--3--3--3--|--------------------------|
                                                     Chorus:                                                                            
--------------------------|--------------------------|---------------------|
--------------------------|--------------------------|---------------------|
--------------------------|--------------------------|--2------------------|
--2--2--2--2--2--2--2--2--|--2--2--2--2--2--2--2--2--|--0--------6------4--|
--0--0--0--0--0--0--0--0--|--0--0--0--0--0--0--0--0--|-----------4------2--|
--------------------------|--------------------------|---------------------|
                                                            
------------------|---------------------|------------------|
------------------|---------------------|------------------|
------------------|------------------2--|------------------|
------------------|--4--------2------0--|------------------|
------------------|--2--------0---------|------------------|
------------------|---------------------|------------------|
                                                               
---------------------|------------------|---------------------|
---------------------|------------------|---------------------|
--2------------------|------------------|------------------2--|
--0--------6------4--|------------------|--4--------2------0--|
-----------4------2--|------------------|--2--------0---------|
---------------------|------------------|---------------------|
                   Verse:                                                     
------------------|--------------------------|-------------------------|
------------------|--------------------------|-------------------------|
------------------|--2--2--2--2--2--2--2--2--|--2--2--2--2----2--------|
------------------|--0--0--0--0--0--0--0--0--|--0--0--0--0----0--6--5--|
------------------|--------------------------|-------------------4--3--|
------------------|--------------------------|-------------------------|
                                                                                
--------------------------|-------------------------|--------------------------|
--------------------------|-------------------------|--------------------------|
--------------------------|-------------------------|--2--2--2--2--2--2--2--2--|
--4--4--4--4--4--4--4--4--|--4--4--4--4----4--5--6--|--0--0--0--0--0--0--0--0--|
--2--2--2--2--2--2--2--2--|--2--2--2--2----2--3--4--|--------------------------|
--------------------------|-------------------------|--------------------------|
                                                                               
-------------------------|--------------------------|-------------------------|
-------------------------|--------------------------|-------------------------|
--2--2--2--2----2--------|--------------------------|-------------------------|
--0--0--0--0----0--6--5--|--4--4--4--4--4--4--4--4--|--4--4--4--4----4--4--4--|
-------------------4--3--|--2--2--2--2--2--2--2--2--|--2--2--2--2----2--2--2--|
-------------------------|--------------------------|-------------------------|
 Pre-Chorus:                                                    
--------------------------|--------------------------|
--------------------------|--------------------------|
--------------------------|--------------------------|
--------------------------|--2--2--2--2--2--2--2--2--|
--5--5--5--5--5--5--5--5--|--0--0--0--0--0--0--0--0--|
--3--3--3--3--3--3--3--3--|--------------------------|
                                                      
--------------------------|--------------------------|
--------------------------|--------------------------|
--------------------------|--------------------------|
--------------------------|--2--2--2--2--2--2--2--2--|
--5--5--5--5--5--5--5--5--|--0--0--0--0--0--0--0--0--|
--3--3--3--3--3--3--3--3--|--------------------------|
                                                      
--------------------------|--------------------------|
--------------------------|--------------------------|
--------------------------|--------------------------|
--------------------------|--------------------------|
--5--5--5--5--5--5--5--5--|--4--4--4--4--4--4--4--4--|
--3--3--3--3--3--3--3--3--|--2--2--2--2--2--2--2--2--|
                                                      
--------------------------|--------------------------|
--------------------------|--------------------------|
--------------------------|--------------------------|
--------------------------|--2--2--2--2--2--2--2--2--|
--5--5--5--5--5--5--5--5--|--0--0--0--0--0--0--0--0--|
--3--3--3--3--3--3--3--3--|--------------------------|
                                                     Chorus:                      
--------------------------|--------------------------|---------------------|
--------------------------|--------------------------|---------------------|
--------------------------|--------------------------|--2------------------|
--2--2--2--2--2--2--2--2--|--2--2--2--2--2--2--2--2--|--0--------6------4--|
--0--0--0--0--0--0--0--0--|--0--0--0--0--0--0--0--0--|-----------4------2--|
--------------------------|--------------------------|---------------------|
                                                            
------------------|---------------------|------------------|
------------------|---------------------|------------------|
------------------|------------------2--|------------------|
------------------|--4--------2------0--|------------------|
------------------|--2--------0---------|------------------|
------------------|---------------------|------------------|
                                                               
---------------------|------------------|---------------------|
---------------------|------------------|---------------------|
--2------------------|------------------|------------------2--|
--0--------6------4--|------------------|--4--------2------0--|
-----------4------2--|------------------|--2--------0---------|
---------------------|------------------|---------------------|
                  Bridge:                                                    
------------------|--------------------------|--------------------------|
------------------|--------------------------|--------------------------|
------------------|--------------------------|--------------------------|
------------------|--4--4--4--4--4--4--4--4--|--------------------------|
------------------|--2--2--2--2--2--2--2--2--|--5--5--5--5--5--5--5--5--|
------------------|--------------------------|--3--3--3--3--3--3--3--3--|
                                                      
--------------------------|--------------------------|
--------------------------|--------------------------|
--------------------------|--------------------------|
--2--2--2--2--2--2--2--2--|--------------------------|
--0--0--0--0--0--0--0--0--|--4--4--4--4--4--4--4--4--|
--------------------------|--2--2--2--2--2--2--2--2--|
                                                      
--------------------------|--------------------------|
--------------------------|--------------------------|
--------------------------|--------------------------|
--4--4--4--4--4--4--4--4--|--------------------------|
--2--2--2--2--2--2--2--2--|--5--5--5--5--5--5--5--5--|
--------------------------|--3--3--3--3--3--3--3--3--|
                                                      
--------------------------|--------------------------|
--------------------------|--------------------------|
--------------------------|--------------------------|
--2--2--2--2--2--2--2--2--|--2--2--2--2--2--2--2--2--|
--0--0--0--0--0--0--0--0--|--0--0--0--0--0--0--0--0--|
--------------------------|--------------------------|
                                                      
--------------------------|--------------------------|
--------------------------|--------------------------|
--------------------------|--------------------------|
--2--2--2--2--2--2--2--2--|--2--2--2--2--2--2--2--2--|
--0--0--0--0--0--0--0--0--|--0--0--0--0--0--0--0--0--|
--------------------------|--------------------------|
Outro:                                                      
--2--2--2--2----2--2--2-2-|--------------------------|
--3--3--3--3----3--3--3-3-|----------------5--5--5-5-|
--2--2--2--2----2--2--2-2-|--6--6--6--6----6--6--6-6-|
--0--0--0--0----0--0--0-0-|--6--6--6--6----6--6--6-6-|
--------------------------|--4--4--4--4----4--4--4-4-|
--------------------------|--------------------------|
                                                      
--------------------------|--------------------------|
--3--3--3--3----3--3--3-3-|--2--2--2--2----2--2--2-2-|
--4--4--4--4----4--4--4-4-|--2--2--2--2----2--2--2-2-|
--4--4--4--4----4--4--4-4-|--2--2--2--2----2--2--2-2-|
--2--2--2--2----2--2--2-2-|--0--0--0--0----0--0--0-0-|
--------------------------|--------------------------|
                                                      
--2--2--2--2----2--2--2-2-|--------------------------|
--3--3--3--3----3--3--3-3-|----------------5--5--5-5-|
--2--2--2--2----2--2--2-2-|--6--6--6--6----6--6--6-6-|
--0--0--0--0----0--0--0-0-|--6--6--6--6----6--6--6-6-|
--------------------------|--4--4--4--4----4--4--4-4-|
--------------------------|--------------------------|
                                                      
--------------------------|--------------------------|
--3--3--3--3----3--3--3-3-|--2--2--2--2----2--2--2-2-|
--4--4--4--4----4--4--4-4-|--2--2--2--2----2--2--2-2-|
--4--4--4--4----4--4--4-4-|--2--2--2--2----2--2--2-2-|
--2--2--2--2----2--2--2-2-|--0--0--0--0----0--0--0-0-|
--------------------------|--------------------------|
Solo:                                                   
--3--3-----3--3-----3--3--|--5--5-----5--5-----5--5--|
--3--3--3--3--3--3--3--3--|--5--5--5--5--5--5--5--5--|
--------------------------|--------------------------|
--------------------------|--------------------------|
--------------------------|--------------------------|
--------------------------|--------------------------|
                                                      
--3--3-----3--3-----3--3--|--5--5-----5--5-----5--5--|
--3--3--3--3--3--3--3--3--|--5--5--5--5--5--5--5--5--|
--------------------------|--------------------------|
--------------------------|--------------------------|
--------------------------|--------------------------|
--------------------------|--------------------------|
                                                      
--3--3-----3--3-----3--3--|--2--2-----2--2-----2--2--|
--3--3--3--3--3--3--3--3--|--2--2--2--2--2--2--2--2--|
--------------------------|--------------------------|
--------------------------|--------------------------|
--------------------------|--------------------------|
--------------------------|--------------------------|
                                                      
--3--3-----3--3-----3--3--|--5--5-----5--5-----5--5--|
--3--3--3--3--3--3--3--3--|--5--5--5--5--5--5--5--5--|
--------------------------|--------------------------|
--------------------------|--------------------------|
--------------------------|--------------------------|
--------------------------|--------------------------|
                                                      
--5--5-----5--5-----5--5--|--5--5-----5--5-----5--5--|
--5--5--5--5--5--5--5--5--|--5--5--5--5--5--5--5--5--|
--------------------------|--------------------------|
--------------------------|--------------------------|
--------------------------|--------------------------|
--------------------------|--------------------------|
                          Chorus:                                        
-----5--5-----5--5--5--5--|---------------------|------------------|
--5--5--5--5--5--5--5--5--|---------------------|------------------|
--------------------------|--2------------------|------------------|
--------------------------|--0--------6------4--|------------------|
--------------------------|-----------4------2--|------------------|
--------------------------|---------------------|------------------|
                                                               
---------------------|------------------|---------------------|
---------------------|------------------|---------------------|
------------------2--|------------------|--2------------------|
--4--------2------0--|------------------|--0--------6------4--|
--2--------0---------|------------------|-----------4------2--|
---------------------|------------------|---------------------|
                                                            
------------------|---------------------|------------------|
------------------|---------------------|------------------|
------------------|------------------2--|------------------|
------------------|--4--------2------0--|------------------|
------------------|--2--------0---------|------------------|
------------------|---------------------|------------------|
                                                              
---------------------|------------------|---------------------|
---------------------|------------------|---------------------|
--2------------------|------------------|------------------2--|
--0--------6------4--|------------------|--4--------2------0--|
-----------4------2--|------------------|--2--------0---------|
---------------------|------------------|---------------------|
                                                            
------------------|---------------------|------------------|
------------------|---------------------|------------------|
------------------|--2------------------|------------------|
------------------|--0--------6------4--|------------------|
------------------|-----------4------2--|------------------|
------------------|---------------------|------------------|
                                              
---------------------|----------------------||
---------------------|----------------------||
---------------------|--2--2--2--2----------||
--4--------2------6--|--0--0--0--0----------||
--2--------0------4--|----------------------||
---------------------|----------------------||


Текст, аккорды и табулатура для песни "Silly Thing", исполняет "Sex Pistols".
Используемые в песне аккорды можно найти в разделе Как брать аккорды. Аккорды для шестиструнной гитары. Другие песни можно найти на нашем сайте, воспользовавшись алфавитным указателем вверху страницы.


 
Ошибка в тексте? Выделите ошибку и нажмите Ctrl+Enter