1  a  2  a  3  a  4  a        2x
G:------------------------|------------------------|------------------------|
D:3--3--3--3--3--3--3--3--|----'II//---------------|------------------------|
A:------------------------|---//II'----------------|1--1--1--1--1--1--1--1--|
E:------------------------|------------------------|------------------------|

  VERSE 1.2.
                                     3x
G:------------------------|-------------------------------------------------|
D:o3--3--3--3--3--3--3--3-|---------'II//-----------------------------------|
A:o-----------------------|--------//II'------------------------------------|
E:------------------------|-------------------------------------------------|


G:------------------------|------------------------|------------------------|
D:------------------------|------------------------|------------------------|
A:1--1--1--1--1--1--1--1--|------------------------|3--3--3--3--2--3--3--3--|
E:------------------------|3--3--3--3--3--3--3--3--|------------------------|


G:------------------------|------------------------|------------------------|
D:----------'II//--------o|------------------------|------------------------|
A:---------//II'---------o|1--1--1--1--1--1--1--1--|3--3--3--3--3--3--3--3--|
E:------------------------|------------------------|------------------------|

                2x                    2x
G:------------------------|------------------------|------------------------|
D:-------------'II//------|----------'II//---------|3--3--3--3--3--3--3--3--|
A:------------//II'-------|---------//II'----------|------------------------|
E:------------------------|------------------------|------------------------|
                                                                  
               ALT
G:------------------------|------------|------------------------||
D:-------------'//--------|3--3--------|3--3--3--3--3--3--3--3--||
A:------------//'---------|------1--1--|------------------------||
E:------------------------|------------|------------------------||


                                                    Solo
G:------------------------|------------------------|------------------------|
D:------------------------|------------------------|o-----------------------|
A:------------------------|------------------------|o-----------------------|
E:------------------------|------------------------|1--1--1--1--1--1--1--1--|

                                                            D.S. e(X)
G:------------------------|------------------------|------------------------|
D:------------------------|------------------------|----------'II//--------o|
A:------------------------|3--3--3--3--3--3--3--3--|---------//II'---------o|
E:3--3--3--3--3--3--3--3--|------------------------|------------------------|


G:------------------------|------------------------|------------------------|
D:------------------------|------------------------|------------------------|
A:------------------------|------------------------|------------------------|
E:------------------------|------------------------|------------------------|

  (x)                                                          4x
G:------------------------|------------------------|------------------------|
D:------------------------|------------------------|----------'II//---------|
A:1--1--1--1--1--1--1--1--|3--3--3--3--3--3--3--3--|---------//II'----------|
E:------------------------|------------------------|------------------------|
                                                                

G:3--3--3--3--3--3--3--3--|------------|------|----------------|
D:------------------------|3--3--------|------|----------------|
A:------------------------|------1--1--|3--3--|-----1----------|
E:------------------------|------------|------|----------------|
                                                           hold
                        
G:--------------------|-|
D:--------------------|-|
A:---------1----------|-|
E:--------------------|-|
  last note two measures


Текст, аккорды и табулатура для песни "No Feelings", исполняет "Sex Pistols".
Используемые в песне аккорды можно найти в разделе Как брать аккорды. Аккорды для шестиструнной гитары. Другие песни можно найти на нашем сайте, воспользовавшись алфавитным указателем вверху страницы.


 
Ошибка в тексте? Выделите ошибку и нажмите Ctrl+Enter