>= keep playing  
* = Repeat figure from * to *
() = part in brackets is what you keep playing
Bass enters 01:10
*
|-------------------------------------------------|
|-------------------------------------------------|
|-(6h7-7)>----------(8h9-9)>------------(6h7-7)>--|
|----------(8h9-9)>-----------(6h7-7)>------------|
|-------------------------------------------------|
|----------(6h7-7)>-------------------------------|
|-(6h7-7)>-----------(6h7-7)>-----------(6h7-7)>--|
|------------------------------(6h7-7)>-----------|
|------------------------------------------------------|
|----------(6h7-7)>-----9>--6>-------------------------|
|-(6h7-7)>----------9>------------9>----------(6h7-7)>-|
|------------------------------9>----(6h7-7)>----------|
*
Ending
|-----------6-8-9---------------6-8-9---------------6-8-9-----|
|-----6-8-9-------------6-8-9-9-------------6-8-9-9-----------|
|-7-9--------------7-9------------------7-9----------------7--|
|-------------------------------------------------------------|


Текст, аккорды и табулатура для песни "My Way", исполняет "Sex Pistols".
Используемые в песне аккорды можно найти в разделе Как брать аккорды. Аккорды для шестиструнной гитары. Другие песни можно найти на нашем сайте, воспользовавшись алфавитным указателем вверху страницы.


 
Ошибка в тексте? Выделите ошибку и нажмите Ctrl+Enter