God Save The Queen

intro

3:---------------*|*---------*|---------------|*-0---5-4-5-*|---------------|
4:-4-5-5-5-5-5-5-*|*-4-5-5-5-*|-4-5-5-5-5-5-5-|*-----------*|-4-5-5-5-5-5-5-|

verse                         3x
3:-0-0-0-0-0-0-0-0-5-5-5-4-5-5-*|*---------------*|
4:-----------------------------*|*-4-5-5-5-5-5-5-*|

Chorus                 4x
3:-7-7-7--------7-7-7---*|
4:-------7-7--7-------7-*|

Outro (no future...)

           3x  for you
3:-5-5--4-2-*|-0-----------------|
4:----------*|-----4-5-5-5-5-5-5-|

tell me what U think:
 [email protected]
[email protected]_______________






Текст, аккорды и табулатура для песни "God Save The Queen", исполняет "Sex Pistols".
Используемые в песне аккорды можно найти в разделе Как брать аккорды. Аккорды для шестиструнной гитары. Другие песни можно найти на нашем сайте, воспользовавшись алфавитным указателем вверху страницы.


 
Ошибка в тексте? Выделите ошибку и нажмите Ctrl+Enter