INTRO/VERSE
G-------------------------------------------------------
D-------------------------------------------------------
A--5-533-355-5-666-66-5-533-355-------------------------
E--------------------------------33-33------------------
CHORUS
G----------------------------------------------------
D---55-55---55-55---55-555-4555-4555-----------------
A-3-------3-------3----------------------------------
E----------------------------------------------------


Текст, аккорды и табулатура для песни "Belsen Was A Gas", исполняет "Sex Pistols".
Используемые в песне аккорды можно найти в разделе Как брать аккорды. Аккорды для шестиструнной гитары. Другие песни можно найти на нашем сайте, воспользовавшись алфавитным указателем вверху страницы.


 
Ошибка в тексте? Выделите ошибку и нажмите Ctrl+Enter