1 Rhythm:

E|-------------|
B|-------------|
G|--------8~---|
D|--5~----8~---|
A|--5~----6~---|
E|--3~---------|

2 along with Rhythm:

E|------------------------------|
B|-------------------6----------|
G|-----7-----8--7h8-----8--7h8--|
D|--5-----5---------------------|
A|------------------------------|
E|------------------------------|

After 1 and 2:

E|---------------|
B|---------------|
G|---------------|
D|--8-8-8-7-8-7--|
A|--6-6-6-----6--|
E|---------------|

1st Verse riff:

E|----------------------------------------------------------| 
B|----------------------------------------------------------|
G|-----8-8----------8~-------------8~-------------8~--------|
D|--5--8-8--5~------8~----5~-------8~----5~-------8~----5~--|
A|--5--6-6--5~------6~----5~-------6~----5~-------6~----5~--|
E|--3-------3~------------3~-------------3~-------------3~--|
    разлелась.....рекой.широкой....по.родной...земле.печаль...и т.д. 

2nd verse riff
               p p     p p     p p       p p
E|-------------------------------------------------|
B|-------------------------------------------------|
G|--8-8-------------------------------8--8-8-------|
D|--8-8-----5--5-5--5--5-5--5--5-5----8--8-8-------|
A|--6-6-----5--5-5--5--5-5--5--5-5----6--6-6-------|
E|----------3--3-3--3--3-3--3--3-3-----------------|
    кружит..ворон.....................кровью...

       p p     p p     p p           p p     p p      p p     p p     p p
E|----------------------------------------------------------------------------|
B|----------------------------------------------------------------------------|
G|--7--7-7--7--7-7--7--7-7--7/8--------------------8--8-8--8--8-8--7--7-7--7--|
D|--7--7-7--7--7-7--7--7-7--7/8---5--5-5--5--5-5---8--8-8--8--8-8--7--7-7--7--|
A|--5--5-5--5--5-5--5--5-5--5/6---5--5-5--5--5-5---6--6-6--6--6-6--5--5-5--5--|
E|--------------------------------3--3-3--3--3-3------------------------------|
....пьяный..................Видел.он...............лихую...........брань 

Interlude riff

E|--------------------------------------------------------------------------------------|
B|-----------------------------------3-----------------------------------3--------------|
G|--------2----3-2-------------2--------5-3-5-3--------2-----3-2------------5-3-2-------|
D|----3-5----------5-3-----3-5---------------------3-5------------5-3--5----------5-----|
A|--5-------5------------5--------5--------------5--------5--------------------------5--|
E|--------------------------------------------------------------------------------------|

Fast riff
E|---------------------------------------------------------------------------|
B|---------------------------------------------------------------------------|
G|---------------------------------------------------------------------------|
D|--7-7-7-7-7-9-9-9-9-9-9-11-11-11-11-11-11----------------------------------|
A|--5-5-5-5-5-7-7-7-7-7-7-9--9--9--9--9--9--5-5-5-5-5-7-7-7-7-7-9-9-9-9-9-9--|
E|------------------------------------------3-3-3-3-3-5-5-5-5-5-7-7-7-7-7-7--|

Fill in for fast riff

D|--9----7----5---------------------|
A|---00---00---00---7-00-5-00-3-00--|
E|----------------------------------|


Текст, аккорды и табулатура для песни "Угрюм-река", исполняет "Северные Врата".
Используемые в песне аккорды можно найти в разделе Как брать аккорды. Аккорды для шестиструнной гитары. Другие песни можно найти на нашем сайте, воспользовавшись алфавитным указателем вверху страницы.


 
Ошибка в тексте? Выделите ошибку и нажмите Ctrl+Enter