sorry, but some of u guys are on some serious drugs.
I tabbed this myself and it sounds a lot better than anyones so far.

Drop B

Gtr1 is lead
Gtr2 is rythm

Intro
Part1
Gtr 1
|------------------------------------------------------|
|------------------------------------------------------|
|------------------------------------------------------|
|----------3---3---------3---3---------3---3-----------|
|------------------------------------------------------|
|0-2--2--2---2---2--2--2---2---2--2--2---2---2--0-2-0-2| x2

Intro
Part2
Gtr 1                                        PM>v-----v
|------------------------------------------------------|
|------------------------------------------------------|
|------------------------------------------------------|
|----------3---3---------3---3---------3---3-----------|
|------------------------------------------------------|
|0-2--2--2---2---2--2--2---2---2--2--2---2---2--0-2-0-2| x2
while
Gtr 2                                        PM>v-----v
|------------------------------------------------------|
|------------------------------------------------------|
|------------------------------------------------------|
|----------3---3---------3---3---------3---3-----------|
|0-2--2--2-3-2-3-2--2--2-3-2-3-2--2--2-3-2-3-2--0-2-0-2|
|0-2--2--2-3-2-3-2--2--2-3-2-3-2--2--2-3-2-3-2--0-2-0-2| x2



Verse 1
Part1
Gtr 1
PM all
|------------------------------------------------------|
|------------------------------------------------------|
|------------------------------------------------------|
|----------3---3---------3---3---------3---3-----------|
|------------------------------------------------------|
|0-2--2--2---2---2--2--2---2---2--2--2---2---2--0-2-0-2| x2
 ^-^(that part is played open on second time)

Verse 1
Part2
Gtr 1                                        PM>v-----v
|------------------------------------------------------|
|------------------------------------------------------|
|------------------------------------------------------|
|----------3---3---------3---3---------3---3-----------|
|------------------------------------------------------|
|0-2--2--2---2---2--2--2---2---2--2--2---2---2--0-2-0-2| x2
while
Gtr 2                                        PM>v-----v
|------------------------------------------------------|
|------------------------------------------------------|
|------------------------------------------------------|
|----------3---3---------3---3---------3---3-----------|
|0-2--2--2-3-2-3-2--2--2-3-2-3-2--2--2-3-2-3-2--0-2-0-2|
|0-2--2--2-3-2-3-2--2--2-3-2-3-2--2--2-3-2-3-2--0-2-0-2| x2

Pre-Chorus
Both Guitars
PMv-------------v         v-------------v
|-------------------------------------------------|
|-------------------------------------------------|
|-----------------9--107------------------7-------|
|-----------------x--x-x------------------x-------|
|-2-2-2-0-0-0-2-2-7--8-5--2-2-2-0-0-0-2-2-5-------|
|-2-2-2-0-0-0-2-2---------2-2-2-0-0-0-2-2---------| x2

Chorus 1
Gtr1
|-----------------------------------------------------------------------|
|-----------------------------------------------------------------------|
|-----------------------------------------------------------------------|
|-------------------------9--7-9----------------------------------------|
|2-2-2-2-2-2-2-2-0-0-0-0--7--5-7-8-8-8-8-8-8-8-8-10-10-10-10-10-10-10-10|
|2-2-2-2-2-2-2-2-0-0-0-0---------8-8-8-8-8-8-8-8-10-10-10-10-10-10-10-10| x2
while
Gtr2
|-----------------------------------------------------------------------|
|-----------------------------------------------------------------------|
|-----------------------------------------------------------------------|
|-----------------------------------------------------------------------|
|2-2-2-2-2-2-2-2-0-0-0-0-0-0-0-0-8-8-8-8-8-8-8-8-10-10-10-10-10-10-10-10|
|2-2-2-2-2-2-2-2-0-0-0-0-0-0-0-0-8-8-8-8-8-8-8-8-10-10-10-10-10-10-10-10| x2

Verse 2
Part1
Gtr 1
|------------------------------------------------------|
|------------------------------------------------------|
|------------------------------------------------------|
|----------3---3---------3---3---------3---3-----------|
|------------------------------------------------------|
|0-2--2--2---2---2--2--2---2---2--2--2---2---2---------|

Verse 2
Part2
Gtr 1                                        PM>v-----v
|------------------------------------------------------|
|------------------------------------------------------|
|------------------------------------------------------|
|----------3---3---------3---3---------3---3-----------|
|------------------------------------------------------|
|0-2--2--2---2---2--2--2---2---2--2--2---2---2--0-2-0-2| x2
while
Gtr 2                                        PM>v-----v
|------------------------------------------------------|
|------------------------------------------------------|
|------------------------------------------------------|
|----------3---3---------3---3---------3---3-----------|
|0-2--2--2-3-2-3-2--2--2-3-2-3-2--2--2-3-2-3-2--0-2-0-2|
|0-2--2--2-3-2-3-2--2--2-3-2-3-2--2--2-3-2-3-2--0-2-0-2| x2

Chorus 2
Gtr1
|-----------------------------------------------------------------------|
|-----------------------------------------------------------------------|
|-----------------------------------------------------------------------|
|-------------------------9--7-9----------------------------------------|
|2-2-2-2-2-2-2-2-0-0-0-0--7--5-7-8-8-8-8-8-8-8-8-10-10-10-10-10-10-10-10|
|2-2-2-2-2-2-2-2-0-0-0-0---------8-8-8-8-8-8-8-8-10-10-10-10-10-10-10-10| x2
while
Gtr2
|-----------------------------------------------------------------------|
|-----------------------------------------------------------------------|
|-----------------------------------------------------------------------|
|-----------------------------------------------------------------------|
|2-2-2-2-2-2-2-2-0-0-0-0-0-0-0-0-8-8-8-8-8-8-8-8-10-10-10-10-10-10-10-10|
|2-2-2-2-2-2-2-2-0-0-0-0-0-0-0-0-8-8-8-8-8-8-8-8-10-10-10-10-10-10-10-10| x2
then both guitars
|-------------|
|-------------|
|-------------|
|-------------|
|2-2-2-0-0-0-2|
|2-2-2-0-0-0-2|

Bridge
Gtr1
|---------------------------------|---------------------------------|
|-8----8-9-9--11-8-8--14-14-14-14-|-8-8--8-9-9--11-8-8--14-14-14-14-|
|---------------------------------|---------------------------------|
|---------------------------------|---------------------------------|
|---------------------------------|---------------------------------|
|---------------------------------|---------------------------------|

|---------------------------------|-------- |
|-8-8--8-9-9--11-8-8-8-9-11-11-11-|---------|
|---------------------------------|---------|
|---------------------------------|---------|
|---------------------------------|---------|
|---------------------------------|-0-2-2---|
while
Gtr 2  2x                                    PM>v-----v
|------------------------------------------------------|---------|
|------------------------------------------------------|---------|
|------------------------------------------------------|---------|
|----------3---3---------3---3---------3---3-----------|---------|
|0-2--2--2-3-2-3-2--2--2-3-2-3-2--2--2-3-2-3-2--0-2-0-2|---------|
|0-2--2--2-3-2-3-2--2--2-3-2-3-2--2--2-3-2-3-2--0-2-0-2|-0-2-2---|

Last Chorus
Gtr1
|-----------------------------------------------------------------------|
|-----------------------------------------------------------------------|
|-----------------------------------------------------------------------|
|-------------------------9--7-9----------------------------------------|
|2-2-2-2-2-2-2-2-0-0-0-0--7--5-7-8-8-8-8-8-8-8-8-10-10-10-10-10-10-10-10|
|2-2-2-2-2-2-2-2-0-0-0-0---------8-8-8-8-8-8-8-8-10-10-10-10-10-10-10-10| x2
while
Gtr2
|-----------------------------------------------------------------------|
|-----------------------------------------------------------------------|
|-----------------------------------------------------------------------|
|-----------------------------------------------------------------------|
|2-2-2-2-2-2-2-2-0-0-0-0-0-0-0-0-8-8-8-8-8-8-8-8-10-10-10-10-10-10-10-10|
|2-2-2-2-2-2-2-2-0-0-0-0-0-0-0-0-8-8-8-8-8-8-8-8-10-10-10-10-10-10-10-10| x2


Enjoy.


Текст, аккорды и табулатура для песни "Praise", исполняет "Sevendust".
Используемые в песне аккорды можно найти в разделе Как брать аккорды. Аккорды для шестиструнной гитары. Другие песни можно найти на нашем сайте, воспользовавшись алфавитным указателем вверху страницы.


Слушать онлайн Praise


SevendustPraise на Яндекс.Музыке


 
Ошибка в тексте? Выделите ошибку и нажмите Ctrl+Enter