Sevendust 
          Feel So 
          
          Tabbed by Jared 
          
          Riff1-Digitech whammy (doubles an octave below) 
          f-335553335553635br53535356666353br- 
          
          Riff2-Distortion 
          b-0-0---0-0---0-0--- 
          f-0-0---0-0---0-0--- 
          B-0-0--x0-0-xx0-0--- 
          
          Riff3-Distortion 
          b-3322---3300------------ 
          f-3322---3300--0202320--- 
          B-3322---3300--0202320--- 
                         ******* 
          Riff4(gtr1)-Distortion (kick in with wah halfway through) 
          (/ under the number means trem pick) 
          b--6-6---6--6-6-----6-6---6--6----------4-4----4444----4-4--------- 
          f--6-6---6--6-6-----6-6---6--6--56~~56-60-066--000056-60-06-/10--- 
          B-06-60-06--6-600--06-60-06--6-0-----/--0-0-/--0000-/--0-0/---/---- 
            *   * *      **  *   * *     *   
          
          Riff4(gtr2)-Distortion 
          b--6-6---6--6-6-----6-6---6--6----------6-6---6--6-6-- 
          f--6-6---6--6-6-----6-6---6--6----------6-6---6--6-6-- 
          B-06-60-06--6-600--06-60-06--6-016/17-06-60-06--6-600 
            *   * *      **  *   * *     *       *   * *      ** 
          b----6-6---6--6-------- 
          f----6-6---6--6-------- 
          B-0--6-60-06--6-013--- 
            *     * *     * 
          Riff5-Distortion 
          e-7777----7777----10101010----10101010----- 
          b-0000----0000-----0-0-0-0-----0-0-0-0----- 
          f-5555----5555-----8-8-8-8-----8-8-8-8-b--- 
          B-0000----0000-----0-0-0-0-----0-0-0-0----- 
          
          Riff6(gtr1)-Distortion 
          e-11111111--151515--151511111111--151515--151512121212 
          b--0-0-0-0---0-0-0---0-0--0-0-0-0---0-0-0---0-0--0-0-0-0 
          f--9-9-9-9--131313--1313-9-9-9-9--131313--131310101010 
          
          e--121212--121210101010--10101010101010--- 
          b---0-0-0---0-0--0-0-0-0---0-0-0-0-0-0-0--- 
          f--101010--1010-8-8-8-----8-8-8-8-8-8-8--- 
          
          Riff6(gtr2)-Distortion 
          e-7777------7777------5555------1010101010----7777----------7777-- 
          b-7777------7777------3333-------8-8-8-8-8----7777----------7777-- 
          f-5555------5555------3333-------8-8-8-8-8----5555--5-5--5-55555-- 
          B-0000----000000----003333----00-8-8-8-8-8----0000--0-0--0-00000-- 
                    **        **        **                    * *  * * 
          e---------5555----------1010101010--- 
          b---------3333-----------8-8-8-810--- 
          f-5-5--5-53333--3-3--3-3-8-8-8-8-8--- 
          B-0-0--0-03333--3-3--3-3-8-8-8-8-8--- 
            * *  *        * *  * * 
          Riff7-Distortion 
          e-----------------7/8855/77/8----------------7/8877/85- 
          b-0-0---0-0---0-0-x--x--x--x--0-0---0-0---0-0-x--x--x--x- 
          f-0-0---0-0---0-0-5/6633/55/60-0---0-0---0-0-5/6655/63- 
          B-0-0--x0-0-xx0-0-------------0-0--x0-0-xx0-0------------ 
          
          e-----------------7/8855/77/8------------------ 
          b-0-0---0-0---0-0-x--x--x--x--0-0---0-0---0-0--- 
          f-0-0---0-0---0-0-5/6633/55/60-0---0-0---0-0--- 
          B-0-0--x0-0-xx0-0-------------0-0--x0-0-xx0-0--- 
          
          Riff8(gtr1)-Distortion (gtr2 does the same except with wah) 
          b------------------------------76--- 
          f--10^121210^121210^121210^12--56--- 
          B-010^121210^121210^121210^1200-6--- 
            *                          ** 
          Riff9-Distortion 
          g---13--13--13--13---------------------------------------------------- 
          e--------------------------------------------------------------------- 
          b-10--10--10--10--12^10--10--12----10----12----13----------13-----12-- 
          f--------------------------------------------------------------------- 
          B----------------------10--12--1210--1012--1210--1012^13^12--10/12---- 
          
          ------------------------- 
          ------------------------- 
          ----13----13----12------- 
          --------------------10--- 
          1210--1013--1310--10-----


Текст, аккорды и табулатура для песни "Fee So", исполняет "Sevendust".
Используемые в песне аккорды можно найти в разделе Как брать аккорды. Аккорды для шестиструнной гитары. Другие песни можно найти на нашем сайте, воспользовавшись алфавитным указателем вверху страницы.


 
Ошибка в тексте? Выделите ошибку и нажмите Ctrl+Enter