Song: Crumbled 
          Band: Sevendust 
          Album: Home 
            
          Tabbed by: Johnny B 
          
          Sevendust uses a 4 string bass in drop B tuning: B, F#, B, E 
          but i tabbed it for a 5string  
          
          
          Listen for Timings 
          For the first 6 bars there is NO bass.... 
          Main Riff 
          
          
          G|-------------------------------------------------------------- 
          E|-------------------------------------------------------------- 
          B|-------------------------------------------------------------- 
          F|-------------------------------------------------------------- X 8 
          B|---2--1--0--1--0--0---2--1--0--1--0--0------------------------
            
          Chorus Riff 
          G|------------------------------------------------------------- 
          E|-------------------------------------------------------------------------------------------- 
          B|----------------------------------9-9-9-9--------------------------------------9-9-9-9------ 
          F|-------------------------------------------------------------------------------------------- X2 
          B|---0h2--0h2--0--0-0-------------------------0h2--0h2--0--0-0-------------------------------- 
            
            
          Verse Riff 
          G|------------------------------------------------------------- 
          E|------------------------------------------------------------- 
          B|------------------------------------------------------------- 
          F|------------------------------------------------------------- X 4 
          B|--9-9-9-9--5-5-5-5--7-7-7-7--9-9-9-9--5-5-5-5--4-4-4-4-------
            
          Breakdown Riff 
          G|------------------------------------------------------------- 
          E|------------------------------------------------------------- 
          B|------------------------------------------------------------- 
          F|------------------------------------------------------------- X 4 
          B|---5-5-0-5-5-5-0-0-5-5-0-5-6-0-5-5-5-0-0-5-0-0--------------- 
            
          G|--------------------------------------------------------------------
          E|-------------------------------------------------------------------- 
          B|-------------------------------------------------------------------- 
          F|-------------------------------------------------------------------- X 4 
          B|--9----------5----------7-----------9------------5-------------4----


Текст, аккорды и табулатура для песни "Crumbled", исполняет "Sevendust".
Используемые в песне аккорды можно найти в разделе Как брать аккорды. Аккорды для шестиструнной гитары. Другие песни можно найти на нашем сайте, воспользовавшись алфавитным указателем вверху страницы.


 
Ошибка в тексте? Выделите ошибку и нажмите Ctrl+Enter