Sevendust 
          Bender
          
          Tabed by Jared
          
          
          Riff1(gtr1)-Distortion 
          B-666666666666666666666666444444444444444444444444--- 
          
          Riff1(gtr2)-Distortion 
          g-6-----7---7---------------- 
          e-7----10--10---------8--8--- 
          b-x--------------0----5--5--- 
          f-5--------------0----5--5--- 
          B----------------0----------- 
          
          Riff2-Distortion 
          g-----------6-------6---6--------------------------- 
          e-----------7-------7---7-----------5-------5---5--- 
          b-----------x-------x---x-----------5-------5---5--- 
          f-----------5-------5---5-----------5-------5---5--- 
          B-6666666666--666666--66--4444444444--444444--44---- 
          
          Riff3-Distortion 
          g-1------------1-------------- 
          e-1------------1-------------- 
          b-3------------3-------------- 
          f-3------------3-------------- 
          B----0--0-00-0----0--0-0000--- 
               *  * ** *    *  * **** 
          Riff4-Distortion 
          g-7-7777777777777--777775--5555555--- 
          e-6-6666666666667--777775--5555555--- 
          b-4-4444444444440--000004--4444444--- 
          
          Any questions or comments contact me at [email protected] 
          f-4-4444444444440--000003--3333333--- 
          B-4-4444444444440--00000------------- 
          
          Riff5-Distortion 
          g-7-7777777777774--4444444444443--33333333333333--- 
          e-6-6666666666663--3333333333332--22222222222222--- 
          b-4-4444444444441--1111111111110--00000000000000--- 
          f-4-4444444444441--1111111111110--00000000000000--- 
          B-4-4444444444441--1111111111110--00000000000000--- 
          
          Fill in second chorus 
          g-4--4444444444443--33333333333333--- 
          e-3--3333333333332--22222222222222--- 
          b-1--1111111111110--00000000000000--- 
          f-1--1111111111110--00000000000000--- 
          B-1--1111111111110--00000000000000--- 
          
          Riff6(gtr1)-wah wah and envelope filter 
          c-2-4-4444--44--4442-4-4444--4-4--44444444444--444444444444444-- 
          g-2-2-2222--22--2222-2-2222--2-2--22255555555--555555555555555-- 
          e-2-2-2222--22--2222-2-2222--2-2--22244444444--444444444444444-- 
          b--------------------------------------------------------------- 
          
          c-44444444^55-5555--5-5--5-55-555555--5-5--7--2^4444222--22442-22^4 
          g-55555557--7-7777--7-7--7-77-777777--7-7--7--5--555555--55555-55-- 
          e-44444446--6-6666--6-6--6-66-666666--6-6--6--4--444444--44444-44-- 
          b--------4--4-4444--4-4--4-44-444444--4-4--4--2--222222--22222-22-- 
          
          c-444444--4444444--- 
          g-555555--5555555--- 
          e-444444--4444444--- 
          b-222222--2222222--- 
          
          Riff6(gtr2)-Distortion 
          B-22222222--2222222--- 
            ********  ******* 

          Riff7(gtr1)-distortion 
          B-0000000---0000000--- 
            *******   ******* 

          Riff7(gtr2)-wah wah and envelope filter 
          c-4444442---4444444--- 
          g-3333333---3333333--- 
          e-2222222---2222222--- 
          b-0000000---0000000---


Текст, аккорды и табулатура для песни "Bender", исполняет "Sevendust".
Используемые в песне аккорды можно найти в разделе Как брать аккорды. Аккорды для шестиструнной гитары. Другие песни можно найти на нашем сайте, воспользовавшись алфавитным указателем вверху страницы.


Слушать онлайн Bender


SevendustBender на Яндекс.Музыке


 
Ошибка в тексте? Выделите ошибку и нажмите Ctrl+Enter