G1 - ритм гитара
SG - соло гитара
G2 - фактически сопелка, ну эта, флейта
SA - String Ansamble, это синтезатор, если кто будет midi набивать не забудте эту дорожку
B  - Бас гитара (Строй басс гитары: G D A E на октаву ниже)

/ - Слайд

Am   [x02210]
Am/C [x32210]
G    [320033]
F    [133211]
E    [022100]

INTRO (1 раз без баса) X2:

***********************************************************************************************
G1:  Am                   Am/C                   Am                   Am/C
G2: ----------10-------------------|----------10-------------------|
    |13-12-13-12-10/12/13----13-12-10----------||13-12-13-12-10/12/13----13-12-10----------|
    ----------------------10-9----------------10-9-----|
    ---------------------------12------------------12--|
    ---------------------------------------------------|
    ---------------------------------------------------|

SA: |0----------------------------||0----------------------------|
    |1----------------------------||1----------------------------|
    |2----------------------------||2----------------------------|
    -------------------------|
    -------------------------|
    -------------------------|

B:  --------2---------|--------2---------|
    -------------------------|
    |0-0-0----------0-0-----------||0-0-0----------0-0-----------|
    -------------------------|


G1:  G                       F                  G                       F     E
G2: ----------10------------------|----------10-----------------|
    |12-10-12-10-10/12/13----13-12-10---------||12-10-12-10-10/12/13----13-12-10-9------|
    ----------------------10-9-----------------10-9-|
    ---------------------------12-------------------|
    ------------------------------------------------|
    ------------------------------------------------|
    ------------------------------------------------|

SA: |3-----------------------1----------------||3-----------------------1-----0---------|
    |3-----------------------1----------------||3-----------------------1-----0---------|
    |4-----------------------2----------------||4-----------------------2-----1---------|
    ------------------------------------------------|
    ------------------------------------------------|
    ------------------------------------------------|

B:  ------------------------------------------------|
    ------------------------------------------------|
    |----2-----------------------0------------||----2-----------------------------------|
    |3-3---------------------1-1--------------||3-3---------------------1-1---0---------|
***********************************************************************************************


´Здесь идет партия ритм гитары (аккорды) и AS - первые три струны с аккордом,

´На Am бас - A (droped 5 - открытая 5 струна), на Am/C - F (6 струна 1 лад)
´на G - G (6 струна 3 лад), на F - F (6 струна 1 лад), на E - E (6 струна 0 лад).

´Ритм басяка на пальцах не объяснить, но там чередуются одинаковые ноты на двух октавах, 
кто знает
´поймет, кто не знает, тот басами не интересуется.

      Am                  AmC
      Когда забытые друзья тебя случайно позовут
      G                       F                   E
      В те запредельные края, в которых люди не живут.

´Здесь все по прежнему, только временами появляется соло гитара:

SG:   -------------0-0---------------------|
      -------------------------------------|
      -----------2-------------------------|
      -------------------------------------|
      -------------------------------------|
      -------------------------------------|

      Am                        AmC
      Когда придется прочитать   чужие письма на столе
      G                            F                  E
      Не стоит думать или ждать, пока есть небо на Земле.
                      Am
      Есть небо на Земле.


      INTRO.

´Дальше все партии остаются неизменными кроме соло гитары:

SG:   -----------------0-0--------------------------------|
      ------------------------------------------------3-3-|
      ---------------2------------------------------------|
      ----------------------------------------------3-----|
      ----------------------------------------------------|
      ----------------------------------------------------|

      Глядящий в космос астроном,     бегун, чей финиш не далек,

SG:   --------------------------------------------|
      --------------------1-----------------------|
      --------------------2-----------------------|
      --------------------3-----------------------|
      ----------------------------------------2-2-|
      --------------------------------------0-----|

      Влюбленный парень под окном, и вор, укравший кошелек,

´Повышение на октаву AS.

SG:   -----------------0-0--------------------------------|
      ------------------------------------------------3-3-|
      ---------------2------------------------------------|
      ----------------------------------------------3-----|
      ----------------------------------------------------|
      ----------------------------------------------------|

      И гость, которого не ждут,       и друг, сидящий на игле –

SG:   --------------------------------------------|
      --------------------1-----------------------|
      --------------------2-----------------------|
      --------------------3-----------------------|
      --------------------------------------------|
      --------------------------------------------|

      Другого счастье не найдут, для них есть небо на Земле.

                       Dm          Em        Em    G         F   E
AS:  ------10-----12---7---------------3-3-3-1-0-1---0----------------|
     ------10----------8---3-1-0-0--0--3-----------1------------------|
     ------10----------9---------0-----4------------------------------|
     ----------------------------2------------------------------------|
     -----------------------------------------------------------------|
     -----------------------------------------------------------------|

SG:  -----------------------------------------------------------------|
     ------3----------------------------------------------------------|
     ------2------------9---------------------------------------------|
     ------0------------9-------2-------5--------------55-5--33-3-2---|
     -------------------7-------2-------5--------------55-5--33-3-2---|
     ---------------------------0-------3--------------33-3--11-1-0---|

                      Dm
      Есть небо на Земле.

       Dm          G      Em    E     Am
AS:  |-10-----12---7------7-----7-----0--------|
     |-10----------8------8-----9-----1--------|
     |-10----------7------9-----9-----2--------|
     -----9------9-----------------|
     ------------------------------|
     ------------------------------|

SG:  ---------------------0--------|
     |-3---------------------------------------|
     |-2------------------------1--------------|
     |-0-----------5------2-----2--------------|
     --5------2-----2---------0/7--|
     --3------0-----0--------------|

´ Только ритм и бас гитара

      Не важно, кто нам позвонит, и кто ответит на звонок,
      Когда земля в какой-то миг уйдет внезапно из-под ног.
      И кто рискнет в последний раз устроить бунт на корабле,
      Ведь мы для них, они для нас всегда…
      Как небо на Земле.

INTRO.

И в дополнение тому кто слышал песню только по радио привожу голосовую партию, чтоб не 
врать если плохо
помнишь мелодию:

V: |------10----------------|0-0-0-10--------------------------------------|
   |12-13----13-12-10-12-13-|---------13-12-10-10-|10-12-10-12-10-12-10-12-|10-13------------------|
   ------------------------------------|------10-10-10-10-12-9-|
   ------------------------------------------------|
   ------------------------------------------------|
   ------------------------------------------------|

V: |------10----------------|0-0-0-10--------------------------------------|0-12-10----------|
   |12-13----13-12-10-12-13-|---------13-12-10-10-|10-12-10-12-10-12-10-12-|10-13------------------|--------13-12-10-|
   ------------------------------------|------10-10-10-10-12-9-------|
   ------------------------------------------------------|
   ------------------------------------------------------|
   ------------------------------------------------------|


Текст, аккорды и табулатура для песни "Небо на земле", исполняет "Сети".
Используемые в песне аккорды можно найти в разделе Как брать аккорды. Аккорды для шестиструнной гитары. Другие песни можно найти на нашем сайте, воспользовавшись алфавитным указателем вверху страницы.


 
Ошибка в тексте? Выделите ошибку и нажмите Ctrl+Enter