band:Serial Joe
          song:Absence of Mind
          album:Serial Joe...
          music by:Ryan Dennis/Dan Stadnicki/Ryan Stever
          music by:Ryan Dennis/Robin Phoenix
          tabbed by:Colleen      [email protected]
          
          this is in standard tunning
          x=left hand mutting
          i guess most of it is right, but there may be a few errors. 
          send corrections or comments to [email protected]
          
          
          >INTRO/CHORUS
          e---------------------------------------------------------|
          b---------------------------------------------------------|
          g---8888----8888--7777----7777---8888----8888---7777----7-|
          d---------------------------------------------------------|
          a-0-6666-00-6666--5555-00-5555---6666-00-6666---5555-00-5-|
          e-0------00------0-----00------0------00------0------00---|
          
          
          >MAIN VERSE
          e------------------------------|----------------------------------|
          b------------------------------|----------------------------------|
          g------888----88-----777----77-|-----------8-----------7----------|
          d------------------------------|----------------------------------|
          a-0000-666-00-66-000-555-00-55-|0-[repeat]-6-[reapeat]-5-[reapeat]|
          e-0000-----00----000-----00----|0---------------------------------|
            [play this 3X]---------------->[and then play this 1X]--^
          
          
          >RIFF
          e-------------------------------------------|
          b-------------------------------------------|
          g-------------------------------------------|
          d---5-1---5-3-4-5-6---5-3-4-5-6---5-3-4-6-8-|
          a-0-----0-----------0-----------0-----------|
          e-0-3-1-0-3-1-2-3-4-0-3-1-2-3-4-0-3-1-2-4-6-|
          
          
          >SOLO
          e--------------|               |--------|
          b--------------|               |--------|
          g--------------|               |--------|
          d--------------|               |--------|
          a----5----5-66-|               |----55--|
          e-000--000-0---|               |-000--0-|
          [play 2X w/ palm mutting...    [the play this 1X]
          and then 1X w/out plam mutting]
          
          
          >SOLO CONT.
          e-------------------------|---------------|
          b-------------------------|---------------|
          g---7---77---8---7-XXXXXX-|---7-----7---8-|
          d------------------XXXXXX-|---------------|
          a-0-5-0-55-0-6-0-5-XXXXXX-|-0-5-000-5---6-|
          e-0---0----0---0----------|-0---000---0---|
          [play this 1X...and then play this 6X---^]
          
          
          >OUTRO
          e---------------------------|
          b---------------------------|
          g---7777---777---8888---888-|
          d---------------------------|
          a-0-5555-0-555-0-6666-0-666-|
          e-0------0-----0------0-----|
          
          
          >ORDER
          >intro/chorus--6X
          >main verse----1X
          >chorus--------4X
          >main verse----1X
          >riff----------2X
          >solo----------1X
          >outro---------4X


Текст, аккорды и табулатура для песни "Absence Of Mind", исполняет "Serial Joe".
Используемые в песне аккорды можно найти в разделе Как брать аккорды. Аккорды для шестиструнной гитары. Другие песни можно найти на нашем сайте, воспользовавшись алфавитным указателем вверху страницы.


 
Ошибка в тексте? Выделите ошибку и нажмите Ctrl+Enter