На две гитары

INTRO:

B   A7	Dm   Dm/H	Gm   C	F	Am6(V)
1------------------------------------------------------| 
2------------------------------------------------------| 
3|---2----2---------2----2---------2----2--------------------------| 
4|-3----3---3-2-3|3----3---3-2-3|3----3---3-2-2--3-2-1~------------| 
5------------------------------------------------------| 
6------------------------------------------------------|

Gm  A7	Dm   Dm/H	B	A7
1------------------------------------------------------| 
2------------------------------------------------------| 
3|---2----2---------2----2---------2-------------------------------| 
4|-3----3---3-2-3|3----3---3-2-3|3--------3-2~---------------------| 
5------------------------------------------------------| 
6------------------------------------------------------|
=======


solo mute

Gm	A7	Dm   Dm/H
Мечтал, увидел, устремился
Gm	C	F    Am6(V)
Спешил, ошибся, не достал
Gm	A7	Dm   Dm/H
Разбился вздребезги, добился 
B                      A7
Привык, забыл и потерял

Gm	A7	Dm	Dm/H
1-----------------------------------|
2|-----8-10-------------------------------------| 
3|-9-10-----10-10---------9---------------10----|   RIFF A 
4-----------------------------------| 
5-----------------------------------| 
6-----------------------------------|
Нашел, поднял, протер и спрятал

Gm	C	F    Am6(V)
RIFF A
Закрыл, зарыл, припорошил

Gm	A7	Dm   Dm/H
RIFF A
Не думал, не грешил, не лапал

B	A7
1-----------------------------------| 
2----------------8------------------| 
3|----10--10-------------------9----------------| 
4-----------------------------------| 
5-----------------------------------| 
6-----------------------------------|
Поторопился, затушил

Gm	C	F
1-------------13---12---------------| 
2|-------11----11----11-11---11----11--10-------| 
3|-----10----10----10------------------10-------|  RIFF B1 
4-----------------------------------| 
5-----------------------------------| 
6-----------------------------------|
Уехал,	улетел,	вернулся

Gm	C	F	Am6(V)
1-------------13---12-------------------------------------------| 
2|10--10-11----11----11-11---11----11--10---10h11p10------------------------| 
3|--10-------10----10------------------10-----------10h12p10----------------| RIFF B2
4-----------------------------------------------12-10-10/12--15-| 
5---------------------------------------------------------------| 
6---------------------------------------------------------------|
Приплыл,	пришел,	приковылял

Gm	A7	Dm   Dm/H
1-----------------------------------------------------| 
2|------/10---13-10-----------10-------------/10------------------| 
3|-10-12------------12--10-12-----10----10-12----10---------------| RIFF C 
4------------------------12--------------12-10-10/12--| 
5-----------------------------------------------------| 
6-----------------------------------------------------|
Устал, прилег, завис, очнулся

B	A7
1---------------------|
2---------------------|
3|---------/14-----------109-----|
4---------------------|
5---------------------|
6---------------------|
Завыл, залаял, замычал

RIFF B1
Напился, протрезвел, умылся
RIFF B2
Собрал, слепил, нарисовал
RIFF C
Смеялся, спорил, вновь напился

1---------13--15--17--|
2---------------------|
3---------------------|
4---------------------|
5---------------------|
6---------------------|
Привык, забыл и потерял

Здесь играем первую половину INTRO

Gm	A7	Dm   Dm/H
Разбился вздребезги, добился
B	A7    B   A7
Привык, забыл и потерял

B	A7	B	A7
1------------------8---8--7--6--5--| 
2|------8----8---8--8---8---8------------------| 
3|--9/10--10---10-9---9---9--------------------| 
4------------------10--10-9--8--7--| 
5----------------------------------| 
6----------------------------------|
Привык, забыл и потерял

B	A7	B	A7
110---------9------5---5--4--3--1-----15~| 
2|------8--------8--8-------8------------------------| 
3|--9/10--10---10-9---9---9--------------------------| 
4------------------7---7--6--5--3--------|
5----------------------------------------|
6----------------------------------------|
Привык, забыл и потерял


Текст, аккорды и табулатура для песни "Привык, забыл и потерял", исполняет "Серьга".
Используемые в песне аккорды можно найти в разделе Как брать аккорды. Аккорды для шестиструнной гитары. Другие песни можно найти на нашем сайте, воспользовавшись алфавитным указателем вверху страницы.


Слушать онлайн Привык, забыл и потерял


СерьГаПривык, забыл и потерял на Яндекс.Музыке


 
Ошибка в тексте? Выделите ошибку и нажмите Ctrl+Enter