Вступление к КУКЛЕ:

   Gm                            #A 
1)---3-----3--8--6--5--6----|----5-----5---8--6--5--6--5---
2)---3-----3--------------8-|----5-----5-------------------
3)---3-----3----------------|----6-----6-------------------
4)--------------------------|------------------------------
5)--------------------------|------------------------------
6)-3----3-------------------|-6------6---------------------

             Cm                         D
1)------3-------3--8--6--5--6--8--|-----2--------2--2--3--5--2--3-
2)------4-------4-----------------|-----3--------3----------------
3)------5-------5-----------------|-----2--------2----------------
4)--------------------------------|-0-------0---------------------
5)---3-------3--------------------|-------------------------------
6)--------------------------------|-------------------------------

Ну вот как бы и все. Основу я сделал. Слова сами напишете.
	
	
	        
Комментарий автора: Каждый аккорд нужно сразу после удара глушить посредством легонького поднятия пальцев левой руки. Так больше на оригинал похоже.

Текст, аккорды и табулатура для песни "Кукла", исполняет "Серега".
Используемые в песне аккорды можно найти в разделе Как брать аккорды. Аккорды для шестиструнной гитары. Другие песни можно найти на нашем сайте, воспользовавшись алфавитным указателем вверху страницы.


 
Ошибка в тексте? Выделите ошибку и нажмите Ctrl+Enter