#----------------------------------PLEASE NOTE---------------------------------#
#This file is the author's own work and represents their interpretation of the #
#song. You may only use this file for private study, scholarship, or research. #
#------------------------------------------------------------------------------#

================================================================================
         Title : Warriors of death
        Artist : Sepultura
         Album : Bestial Devastation
Transcribed by : By DimeBolt ([email protected])
[email protected]===============

Tune down 1 step (D,G,C,F,A,D)

         Intro
1||----||-----------------|-----------------|-----------------|---------------||
2||----||-----------------|-----------------|-----------------|---------------||
3||----||-----------------|-----------------|-----------------|---------------||
4||----||-----------------|-----------------|-----------------|---10------9---||
5||-9--||-----------------|---------8p7-8---|-----------------|----8------7---||
6||-7--||-777777778p7-8---|-77777777--------|-777777778p7-8---|---------------||

   Intro (higher)
1||-----------------|-----------------|-----------------|---------------||
2||-----------------|-----------------|-----------------|---------------||
3||-----------------|-----------------|-----------------|---------------||
4||-----------------|-----------------|-----------------|---11-----10---||
5||-----------------|---------9p8-9---|-----------------|----9------8---||
6||-888888889p8-9---|-88888888--------|-888888889p8-9---|---------------||

   Verse
1||------------------|------------------|------------------|------------------||
2||------------------|------------------|------------------|------------------||
3||------------------|------------------|------------------|------------------||
4||------------------|------------------|------------------|------------------||
5||-2222222222222222-|-3333333355555555-|-2222222222222222-|------------------||
6||------------------|------------------|------------------|-3333333322222222-||

   Verse (higher)
1||------------------|------------------|------------------|------------------||
2||------------------|------------------|------------------|------------------||
3||------------------|------------------|------------------|------------------||
4||-2222222222222222-|-3333333355555555-|-2222222222222222-|------------------||
5||------------------|------------------|------------------|-3333333322222222-||
6||------------------|------------------|------------------|------------------||

   Break
1||-------------------|-------------------|--------------------|-------------------||
2||-------------------|-------------------|--------------------|-------------------||
3||-------------------|-------------------|--------------------|-------------------||
4||-109--------------|-------------------|-109-----109------|-109--------------||
5||--87--------------|-109--------------|--87------87------|--87--------------||
6||------000000000000-|--87-000000000000-|------0000-----0000-|------000000000000-||

   Slower
1||-----------------|-------------------|-----------------|-----------------||
2||-----------------|-------------------|-----------------|-----------------||
3||-----------------|-------------------|-----------------|-----------------||
4||-----------------|-------------------|-----------------|-----------------||
5||-2-2-2-2-2-2-2-2-|-2-2-2-2-2-2-2-----|-2-2-2-2-2-2-2-2-|-2-2-2-2-2-2-3---||
6||-0-0-0-0-0-0-0-0-|-0-0-0-0-0-0-0-12-|-0-0-0-0-0-0-0-0-|-0-0-0-0-0-0-1---||

                                        Slow
1||-----------------|-----------------||------|------|------|------||
2||-----------------|-----------------||------|------|------|------||
3||-----------------|-----------------||------|------|------|------||
4||-----43-----54-|-----65-----7/8-||------|------|------|------||
5||-----21-----32-|-----43-----5/6-||-2----|-5----|-4----|-3----||
6||-0-0-----0-0-----|-0-0-----0-0-----||-0----|-3----|-2----|-1----||

   Tapping solo (repeat bars as needed)
1||--t------|--t------|--t------|---------||-----------------|-----------------||
2||-12p7p0--|-13p7p0--|-12p7p0--|-11p7p0--||-----------------|-----------------||
3||---------|---------|---------|---------||-----------------|-----------------||
4||---------|---------|---------|---------||-----------------|-----------------||
5||---------|---------|---------|---------||-2-------5---3---|-2-------5---6---||
6||---------|---------|---------|---------||-0-------3---1---|-0-------3---4---||

   Palm mute
1||-----------------|-----------------|-----------------|-----------------||
2||-----------------|-----------------|-----------------|-----------------||
3||-----------------|-----------------|-----------------|-----------------||
4||-----------------|-----------------|-----------------|-----------------||
5||-2-2-2-2-2-2-2-2-|-5-5-5-5-3-3-3-3-|-2-2-2-2-2-2-2-2-|-5-5-5-5-6-6-6-6-||
6||-0-0-0-0-0-0-0-0-|-3-3-3-3-1-1-1-1-|-0-0-0-0-0-0-0-0-|-3-3-3-3-4-4-4-4-||


Текст, аккорды и табулатура для песни "Warriors Of Death", исполняет "Sepultura".
Используемые в песне аккорды можно найти в разделе Как брать аккорды. Аккорды для шестиструнной гитары. Другие песни можно найти на нашем сайте, воспользовавшись алфавитным указателем вверху страницы.


Слушать онлайн Warriors Of Death


SepulturaWarriors Of Death на Яндекс.Музыке


 
Ошибка в тексте? Выделите ошибку и нажмите Ctrl+Enter