RIFF 1
----------------------|
----------------------|
----------------------|
----------------------|
|---2-3-------1-----2-3---------1-|
|-0-----0-1-2---2-0-----0-1-2-3---|

RIFF 2
----------------|
----------------|
----------------|
|---------4-----5-----------|
|---------2-----3---------2-|
|-0-0-0-0---0-0---0-0-2-3---|
  x x x x   x x   x x

RIFF 3
----------------------------------------------|
----------------------------------------------|
----------------------------------------------|
--9-------------10------------9-------------7-|
--7-------------8-------------7-------------5-|
|-0-0-0-0-0-0---0-0-0-0-0-0---0-0-0-0-0-0---0-0-0-0-0-0---|
  x x x x x x   x x x x x x   x x x x x x   x x x x x x

RIFF 4
------------------------------------------------------|
------------------------------------------------------|
------------------------------------------------------|
------------------------------------------------------|
|-2-2-2-2-2-2-2-2-2-2-2-2-2-2-2-2-3-3-3-3-3-3-3-3-3-3-3-3-3-3-3-3-|
------------------------------------------------------|
  x x x x x x x x x x x x x x x x x x x x x x x x x x x x x x x x

RIFF 5
---------------------------------|
---------------------------------|
---------------------------------|
|-------7----------7----------7----------7---|
|---7-8---8----7-8---8----7-8---8----7-8---8-|
|-0----------0----------0----------0---------|

RIFF 6
----------------------------------------------------------|
----------------------------------------------------------|
----------------------------------------------------------|
----------------------------------------------------------|
-------3333333333333333-2222222222222222-1111111111111111-|
|-0000000000000000----------------------------------------------------|
  xxxxxxxxxxxxxxxx xxxxxxxxxxxxxxxx xxxxxxxxxxxxxxxx xxxxxxxxxxxxxxxx

RIFF 7 (LISTEN TO TAPE FOR CORRECT TIMING)
---------|
---------|
---------|
|----4-5-4----4-5-4--|
|-4--2-3-2--4-2-3-2--|
|-2---------2--------|


STRUCTURE

 INTRODUCTION:
  RIFF 1 x 6
  RIFF 2 x 4

 VERSE:
  RIFF 2 x 4
  RIFF 3 x 4
  RIFF 2 x 4
  RIFF 3 x 4

 CHORUS:
  RIFF 4 x 2
  RIFF 2 x 4 

 VERSE:
  RIFF 2 x 4
  RIFF 3 x 4

 CHORUS:
  RIFF 4 x 2
  RIFF 2 x 4 

  RIFF 5 x 2

 LEAD BREAK:
  RIFF 6 x 4

 BRIDGE:
  RIFF 7

  RIFF 3 x 4

 VERSE:
  RIFF 2 x 4
  RIFF 3 x 4

 CHORUS:
  RIFF 4 x 2
  RIFF 2 x 4 

 END:
  RIFF 5 x 2


Текст, аккорды и табулатура для песни "Show Me The Wrath", исполняет "Sepultura".
Используемые в песне аккорды можно найти в разделе Как брать аккорды. Аккорды для шестиструнной гитары. Другие песни можно найти на нашем сайте, воспользовавшись алфавитным указателем вверху страницы.


Слушать онлайн Show Me The Wrath


SepulturaShow Me The Wrath на Яндекс.Музыке


 
Ошибка в тексте? Выделите ошибку и нажмите Ctrl+Enter