Эту песню не удобно писать аккордами, поэтому пишу табы.


                 
---------------------------------------------|
---------------------------------------------|
---------------------------------------------|
---------------------------------------------|
|--2h3---3--2h3---3--2h3---|--2h3---3--2h3---3--2h3---|--2h3---3--2h3---3--2h3---|
|--0h1---1--0h1---1--0h1---|--0h1---1--0h1---1--0h1---|--0h1---1--0h1---1--0h1---|
             
                                                                    
---------------------------------------------|
---------------------------------------------|
---------------------------------------------|
---------------------------------------------|
|--2h3---3--2h3---3--2h3---|--2h3---3--2h3---3--2h3---|--2h3---3--2h3---3--2h3---|
|--0h1---1--0h1---1--0h1---|--0h1---1--0h1---1--0h1---|--0h1---1--0h1---1--0h1---|
          
                                                                       
---------------------------------------------|
---------------------------------------------|
---------------------------------------------|
---------------------------------------------|
|--2h3---3--2h3---3--2h3h--|--2h3---3--2h3---3--2h3---|--2h3---3--2h3---3--2h4---|
|--0h1---1--0h1---1--0h1h--|--0h1---1--0h1---1--0h1---|--0h1---1--0h1---1--0h2---|
              
                                                                   
---------------------------------------------|
---------------------------------------------|
---------------------------------------------|
---------------------------------------------|
|--2h3---3--2h3---3--2h4---|--2h3---3--2h3---3--2h4---|--2h3---3--2h3---3--2h4---|
|--0h1---1--0h1---1--0h2---|--0h1---1--0h1---1--0h2---|--0h1---1--0h1---1--0h2---|
                                                
                                 
---------------------------------------------|
---------------------------------------------|
---------------------------------------------|
---------------------------------------------|
|--2h3---3--2h3---3--2h4---|--2h3---3--2h3---3--2h4---|--2h3---3--2h3---3--2h4---|
|--0h1---1--0h1---1--0h2---|--0h1---1--0h1---1--0h2---|--0h1---1--0h1---1--0h2---|
                                             
                                   
---------------------------------------------|
---------------------------------------------|
---------------------------------------------|
---------------------------------------------|
|--2h3---3--2h3---3--2h4---|--2h3---3--2h3---3--2h3---|--2h3---3--2h3---3--2h3---|
|--0h1---1--0h1---1--0h2---|--0h1---1--0h1---1--0h1---|--0h1---1--0h1---1--0h1---|
                                               
                                  
---------------------------------------------|
---------------------------------------------|
---------------------------------------------|
---------------------------------------------|
|--2h3---3--2h3---3--2h3---|--2h3---3--2h3---3--2h3---|--2h3---3--2h3---3--2h3---|
|--0h1---1--0h1---1--0h1---|--0h1---1--0h1---1--0h1---|--0h1---1--0h1---1--0h1---|
                                                   
                              
---------------------------------------------|
---------------------------------------------|
---------------------------------------------|
---------------------------------------------|
|--2h3---3--2h3---3--2h3---|--2h3---3--2h3---3--2h3---|--2h3---3--2h3---3--2h3---|
|--0h1---1--0h1---1--0h1---|--0h1---1--0h1---1--0h1---|--0h1---1--0h1---1--0h1---|
                                              
                          
------------------------------------|
------------------------------------|
------------------------------------|
------------------------------------|
|--8----7----5---4---5--|--8----7----5---4---5--|--8----7----5---4---5--|
|--6----5----3---2---3--|--6----5----3---2---3--|--6----5----3---2---3--|

                                                                              
------------------------------------------|
------------------------------------------|
------------------------------------------|
------------------------------------------|
|--8----7----5---4---5--|--2h3---3--2h3---3--2h3---|--2h3---3--2h3---3--2h3---|
|--6----5----3---2---3--|--0h1---1--0h1---1--0h1---|--0h1---1--0h1---1--0h1---|

                                                                                 
---------------------------------------------|
---------------------------------------------|
---------------------------------------------|
---------------------------------------------|
|--2h3---3--2h3---3--2h3---|--2h3---3--2h3---3--2h3---|--2h3---3--2h3---3--2h4---|
|--0h1---1--0h1---1--0h1---|--0h1---1--0h1---1--0h1---|--0h1---1--0h1---1--0h2---|

                                                                                 
---------------------------------------------|
---------------------------------------------|
---------------------------------------------|
---------------------------------------------|
|--2h3---3--2h3---3--2h4---|--2h3---3--2h3---3--2h4---|--2h3---3--2h3---3--2h4---|
|--0h1---1--0h1---1--0h2---|--0h1---1--0h1---1--0h2---|--0h1---1--0h1---1--0h2---|

                                                                                 
---------------------------------------------|
---------------------------------------------|
---------------------------------------------|
---------------------------------------------|
|--2h3---3--2h3---3--2h4---|--2h3---3--2h3---3--2h4---|--2h3---3--2h3---3--2h4---|
|--0h1---1--0h1---1--0h2---|--0h1---1--0h1---1--0h2---|--0h1---1--0h1---1--0h2---|

                                                                                 
---------------------------------------------|
---------------------------------------------|
---------------------------------------------|
---------------------------------------------|
|--2h3---3--2h3---3--2h4---|--2h3---3--2h3---3--2h3---|--2h3---3--2h3---3--2h3---|
|--0h1---1--0h1---1--0h2---|--0h1---1--0h1---1--0h1---|--0h1---1--0h1---1--0h1---|

                                                                                 
---------------------------------------------|
---------------------------------------------|
---------------------------------------------|
---------------------------------------------|
|--2h3---3--2h3---3--2h3---|--2h3---3--2h3---3--2h3---|--2h3---3--2h3---3--2h3---|
|--0h1---1--0h1---1--0h1---|--0h1---1--0h1---1--0h1---|--0h1---1--0h1---1--0h1---|

                                                                                 
---------------------------------------------|
---------------------------------------------|
---------------------------------------------|
---------------------------------------------|
|--2h3---3--2h3---3--2h3---|--2h3---3--2h3---3--2h3---|--2h3---3--2h3---3--2h3---|
|--0h1---1--0h1---1--0h1---|--0h1---1--0h1---1--0h1---|--0h1---1--0h1---1--0h1---|

                                                                                    
------------------------------------------------|
------------------------------------------------|
------------------------------------------------|
------------------------------------------------|
|--2--2--3--2h3--2h3--2h3---|--2--2--3--2h3--2h3--2h3---|--2--2--3--2h3--2h3--2h3---|
|--0--0--1--0h1--0h1--0h1---|--0--0--1--0h1--0h1--0h1---|--0--0--1--0h1--0h1--0h1---|

                                                              
--------------------------------------|
--------------------------------------|
--------------------------------------|
--------------------------------------|
|--2--2--3--2-3--2-3--2-3---2-2-2--|--2h3---3--2h3---3--2h3---|
|--0--0--1--0-1--0-1--0-1---0-0-0--|--0h1---1--0h1---1--0h1---|

                                                                                 
---------------------------------------------|
---------------------------------------------|
---------------------------------------------|
---------------------------------------------|
|--2h3---3--2h3---3--2h3---|--2h3---3--2h3---3--2h3---|--2h3---3--2h3---3--2h3---|
|--0h1---1--0h1---1--0h1---|--0h1---1--0h1---1--0h1---|--0h1---1--0h1---1--0h1---|

                                                                                 
---------------------------------------------|
---------------------------------------------|
---------------------------------------------|
---------------------------------------------|
|--2h3---3--2h3---3--2h3---|--2h3---3--2h3---3--2h3---|--2h3---3--2h3---3--2h3---|
|--0h1---1--0h1---1--0h1---|--0h1---1--0h1---1--0h1---|--0h1---1--0h1---1--0h1---|

                                                                                 
---------------------------------------------|
---------------------------------------------|
---------------------------------------------|
---------------------------------------------|
|--2h3---3--2h3---3--2h3---|--2h3---3--2h3---3--2h3---|--2h3---3--2h3---3--2h3---|
|--0h1---1--0h1---1--0h1---|--0h1---1--0h1---1--0h1---|--0h1---1--0h1---1--0h1---|

                                                                              
------------------------------------------|
------------------------------------------|
------------------------------------------|
------------------------------------------|
|--2h3---3--2h3---3--2h3---|--2h3---3--2h3---3--2h3---|--8----7----5---4---5--|
|--0h1---1--0h1---1--0h1---|--0h1---1--0h1---1--0h1---|--6----5----3---2---3--|

                                                                        
------------------------------------|
------------------------------------|
------------------------------------|
------------------------------------|
|--8----7----5---4---5--|--8----7----5---4---5--|--8----7----5---4---5--|
|--6----5----3---2---3--|--6----5----3---2---3--|--6----5----3---2---3--|

                                                                                 
---------------------------------------------|
---------------------------------------------|
---------------------------------------------|
---------------------------------------------|
|--2h3---3--2h3---3--2h3---|--2h3---3--2h3---3--2h3---|--2h3---3--2h3---3--2h3---|
|--0h1---1--0h1---1--0h1---|--0h1---1--0h1---1--0h1---|--0h1---1--0h1---1--0h1---|

                                                                                 
---------------------------------------------|
---------------------------------------------|
---------------------------------------------|
---------------------------------------------|
|--2h3---3--2h3---3--2h3---|--2h3---3--2h3---3--2h3---|--2h3---3--2h3---3--2h3---|
|--0h1---1--0h1---1--0h1---|--0h1---1--0h1---1--0h1---|--0h1---1--0h1---1--0h1---|

                                                                                 
---------------------------------------------|
---------------------------------------------|
---------------------------------------------|
---------------------------------------------|
|--2h3---3--2h3---3--2h3---|--2h3---3--2h3---3--2h3---|--2--2--2--2--2--2--2--2--|
|--0h1---1--0h1---1--0h1---|--0h1---1--0h1---1--0h1---|--0--0--0--0--0--0--0--0--|

                                                                         
-------------------------------------|
-------------------------------------|
-------------------------------------|
-------------------------------------|
|--3--2----4--3----3--2--|----4--3----3----3----|--3--2----4--3----3--2--|
|--1--0----2--1----1--0--|----2--1----1----1----|--1--0----2--1----1--0--|

                                                                       
-----------------------------------|
-----------------------------------|
-----------------------------------|
-----------------------------------|
|----4--3----3----3----|--3--2----4--3----3--2--|----4--3----3----3----|
|----2--1----1----1----|--1--0----2--1----1--0--|----2--1----1----1----|

                                                                         
-------------------------------------|
-------------------------------------|
-------------------------------------|
-------------------------------------|
|--3--2----4--3----3--2--|----4--3----3----3-----------------|
|--1--0----2--1----1--0--|----2--1----1----1----|--1--1--1--1--1--0------|

                                                                           
---------------------------------------|
---------------------------------------|
---------------------------------------|
---------------------------------------|
---------------------------------------|
|--1--1--1--1--1--0------|--1--1--1--1--1--0------|--1--1--1--1--1--0------|

                                                                           
---------------------------------------|
---------------------------------------|
---------------------------------------|
---------------------------------------|
---------------------------------------|
|--1--1--1--1--1--0------|--1--1--1--1--1--0------|--1--1--1--1--1--0------|

                                                                           
---------------------------------------|
---------------------------------------|
---------------------------------------|
---------------------------------------|
-------------|--3--3--3--3--3--2------|--3--3--3--3--3--2------|
|--1--1--1--1--1--0------|--1--1--1--1--1--0------|--1--1--1--1--1--0------|

                                                                           
---------------------------------------|
---------------------------------------|
---------------------------------------|
---------------------------------------|
|--3--3--3--3--3--2------|--3--3--3--3--3--2------|--3--3--3--3--3--2------|
|--1--1--1--1--1--0------|--1--1--1--1--1--0------|--1--1--1--1--1--0------|

                                                                           
--------------------------------------||
--------------------------------------||
--------------------------------------||
--------------------------------------||
|--3--3--3--3--3--2------|--3--3--3--3--3--2------|--3--3--3--2--3--------||
|--1--1--1--1--1--0------|--1--1--1--1--1--0------|--1--1--1--0--1--------||



Roots Bloody Roots
Roots Bloody Roots
Roots Bloody Roots
Roots Bloody Roooaaaaaahh

I
Believe in our fate
We don´t need to fake
It´s all we wanna be
Watch me freeeaaak !!

I say
We´re growing every day
Getting stronger in every way
I´ll take you to a place
Where we shall find our

Roots Bloody Roots
Roots Bloody Roots
Roots Bloody Roots
Roots Bloody Roots

Rain
Bring me the strength
Is breeding me this way
To get to another day
and all I want to see
Set us free

Why
Can´t you see
Can´t you feel
This is real
Ahhh

I pray
We don´t need to change
Our ways to be saved
That all we wanna be
Watch us freak


Текст, аккорды и табулатура для песни "Roots Bloody Roots", исполняет "Sepultura".
Используемые в песне аккорды можно найти в разделе Как брать аккорды. Аккорды для шестиструнной гитары. Другие песни можно найти на нашем сайте, воспользовавшись алфавитным указателем вверху страницы.


Слушать онлайн Roots Bloody Roots


SepulturaRoots Bloody Roots на Яндекс.Музыке


 
Ошибка в тексте? Выделите ошибку и нажмите Ctrl+Enter