RIFF 1:
|-12-13-12-13-12-13-12-13-12-13-12-13-12-13-12-13-12-13-12-13-|
--------------------------------------------------|
--------------------------------------------------|
--------------------------------------------------|
--------------------------------------------------|
--------------------------------------------------|

RHYTHM 1:
----------------------------------------|
----------------------------------------|
----------------------------------------|
|--2----------------------------------------5--4--6-|
|--2----------------------------------------5--4--6-|
|--0----------------------------------------3--2--4-|

RHYTHM 2:
--------------------------------------------------|
--------------------------------------------------|
--------------------------------------------------|
--------------------------------------------------|
--------------------------------------------------|
|--0--0--0--0--0--0--0--0--0--0--0--0--0--0--0--0--0--0-------|
    PM .................................................

--------------------------------------------------|
--------------------------------------------------|
--------------------------------------------------|
---------------------------5-----4-----5----------|
---------------------------5-----4-----5----------|
|--0--0--0--0--0--0--0--0--0--0--0--0--3-----2-----3----------|
    PM ...............................

RHYTHM 3:
----------------------------------------|
----------------------------------------|
----------------------------------------|
|--2------------------------------------------------|
|--2------------------------------------------------|
|--0------------------------------------------------|


RHYTHM 4 (PRE CHORUS):
----------------------------------------|
----------------------------------------|
|-----3------------3------------|-----3-----------3-------------|
|--2--3---5--4--5--3------------|--2--3--5--4--5--3-----5--4--5-|
|--2--1---5--4--5--1------------|--2--1--5--4--5--1-----5--4--5-|
|--0------3--2--3---------------|--0-----3--2--3--------3--2--3-|

RHYTHM 5 (CHORUS):
----------------------------------------|
----------------------------------------|
----------------------------------------|
|--2----------------------------|--2----------------------------|
|--2----------------------------|--2----------------------------|
|--0---0-----7b8b7--6-----------|--0---0--0--7-8-7---6----------|
        PM                             PM..  *

----------------------------------------|
----------------------------------------|
----------------------------------------|
|--2------------------------------------------------|
|--2------------------------------------------------|
|--0---0--0--7-8-7---6----------|--0-0-0-0-0--0-0-0-0-0-0--6----|
        PM..  *                     PM....................

SONG STRUCTURE:
 RIFF 1 - 4x
 RIFF 1 - ENTER DRUMS
 RIFF 1 - 3x

 RHYTHM 1 - 1x
 RHYTHM 2 - 4x
 RHYTHM 3 - STOP HERE ALTOGETHER!

 RHYTHM 2:
  Why don´t you get a life and grow up
  Why don´t you realize that you´re fucked up
  Why criticize what you don´t understand
  Why change my words, you´re so afraid

 RHYTHM 4

 RHYTHM 2:
  You think you have the right to put me down
  Propaganda hides your scum
  Face to face you don´t have a word to say
  You got in my way, now you´ll have to pay

 RHYTHM 5 - Don´t, Don´t believe what you see!
 RHYTHM 5 - Don´t, Don´t believe what you read!
 RHYTHM 4 - No!!!

 RHYTHM 2:
  I know my ways, I´m here to stay
  I didn´t start all this yesterday
  I´ll prove you wrong all the way
  Life teaches me you´re always alone

 RHYTHM 5 - Don´t, Don´t believe what you see!
 RHYTHM 5 - Don´t, Don´t believe what you read!
 RHYTHM 5 - No!!!


Текст, аккорды и табулатура для песни "Propaganda", исполняет "Sepultura".
Используемые в песне аккорды можно найти в разделе Как брать аккорды. Аккорды для шестиструнной гитары. Другие песни можно найти на нашем сайте, воспользовавшись алфавитным указателем вверху страницы.


Слушать онлайн Propaganda


SepulturaPropaganda на Яндекс.Музыке


 
Ошибка в тексте? Выделите ошибку и нажмите Ctrl+Enter