I have noticed that there was not alot of Sepultura for guitar but tones
for bass. This struck anger (theoreticly it did). So I said I shall make
guitar tabs for Sepultura for this is a awesome band and should not be discraced
by radical tone of bass become more then guitar.
Eb,Ab,Db,Gb,Bb,Eb,

|-0---P--H--P--H--P--H---|-0-------------------||
|---18-17-18-17-18-17-18-|--18-17-18-17-18-17/-||
|------------------------|---------------------||
|------------------------|---------------------||
|------------------------|---------------------||
|------------------------|---------------------||

|---|-------|--------------------------------------||---||
|---|-------|--------------------------------------||---||
|---|-------|--------------------------------------||---||
|-2-|-------|--------------------------------------||-2-||
|-2-|-5-4-6-|--------------------------------5-4-6-||-2-||
|-0-|-3-2-4-|-0-0-0-0-0-0-0-0-0-0-0-0-0-0-0--3-2-4-||-0-||
              .............................

|-----------------------|
|-----------------------|
|-----------------------|
|-----------------------|
|-2--/8-----4-3-4/8---8-|
|-0--/6---0-2-1-2/6---6-|

CHORUS RIFF
|---------------------|-------------------------|
|---------------------|-------------------------|
|---------------------|-------------------------|
|--------4/5-4--4/4-3-|-------------------------|
|-2-2-2--2/3-2--1/2-1-|-------------------------|
|-0-0-0---------------|-0-0-0-0-0--0-0-0-0-0--4-|
| . . .                 ....................
|
|--------------------------||
|--------------------------||
|--------------------------||
|--------------------------||
|--------------------------||
|-0-0-0-0-0--0-0-0-0-0-18-||
  ....................

|---------|-------------------|-----------------------
|---------|-------------------|-----------------------
|---------|-------------------|-----------------------
|---------|-------------------|-----------------------
|-2-2-2-2-|-6/7/6-2-2-2-2-2-2-|-9/10/9----9/8----8/7--
|-0-0-0-0-|-4/5/4-0-0-0-0-0-0-|-7/8-/7--0-7/6--0-6/5--
| .......	     ...........
|
|------------------------------------------|
|------------------------------------------|
|------------------------------------------|
|------------------------------------------|
|-6/7/6-2-2-2-2-2-2-2--4-3-2--4-3-2--4-4-3-|
|-4/5/4-0-0-0-0-0-0-0--2-1-0--2-1-0--2-2-1-|
        ..................................

SOLO
|----------------------------------|
|-5-0-5-0-5-0-5-0-5-0-5-0-5-0-5-0--|
|--P-H-P-H-P-H-P-H-P-H-P-H-P-H-P-H-|
|----------------------------------|
|----------------------------------|
|----------------------------------|
|
|----------------------------------------|
|-5-0-5-3-0-5-0-5-3-0-5-0-5-3-0-5-0-5-0--|
|--P-H-P-P-H-P-H-P-P-H-P-H-P-P-H-P-H-P-H-|
|----------------------------------------|
|----------------------------------------|
|----------------------------------------|
|
|--P-H-P-H-P-H-P-H-------|-----------------|
|-5-0-5-0-5-0-5-0--------|-----------------|
|-----------------5-/-21-|-(21)--23--(23)/-|
|------------------------|-----------------|
|------------------------|-----------------|
|------------------------|-----------------|
|
|-7-8-10-8-7-8-10-8--7-8-10-8-7-10-8-7-10-8-7-10---|
|--H-H--P-P-H-H--P----H-H--P-P-H--H-P-P--H-P-P--H--|
|--------------------------------------------------|
|--------------------------------------------------|
|--------------------------------------------------|
|--------------------------------------------------|
|
|--------------------------------------------------|
|-7-8-7----7-8-10--8-7/5------7/10-8-7-5------7-0--|
|--H-P--9---H-H-----P----7-4------P-P-P---7-4--P---|
|-------------------------P----------------P-------|
|--------------------------------------------------|
|--------------------------------------------------|
|
|------------------------------------------|
|-8-7-5------------------------------------|
|--p-p----7-4-5-7-5-4----4-5-7-5-4---------|
|------------H-H-P-P--7---H-H-P-P--7-4-5---|
|-----------------------------------P-H-H--|
|------------------------------------------|
|
|------------------------------(0)--------|
|------------------------------(0)--------|
|------------------------------(0)--12-12-|
|-7-5-4------------------------(0)--------|
|--P-P----7-4--2-3-5-3-2-0---0------------|
|----------P----H-H-P-P-------------------|
|
|---------------------------|-------------------------|
|------------------------14-|-14---14-----12-------9/-|
|--12-12-14-12--14-12-14-14-|-14---14--14----14/11----|
|---------------------------|-------------------------|
|---------------------------|-------------------------|
|---------------------------|-------------------------|
|                                                 H    HARM.
|--------------------------16-16-|-16-16-16-17--17-19--------|
|--------------15-15----15-15-15-|-15-15-15-15--15-----------|
|-16-16-16-16--16-16-16-16-16-16-|-16-16-16-16--16-----------|
|--------------------------------|---------------------19----|
|--------------------------------|---------------------------|
|--------------------------------|---------------------------|
|
|-0---0-0--0-0-0---0-0-0-|-0-0----------------0-|
|-3-5-5-5--5-5-3-5-5-5-5-|-0-0----------------0-|
|--H------------H--------|-----2--2-3-2-0-------|
|------------------------|-------H-P-P----5-2-2-|
|------------------------|-----------------P----|
|------------------------|----------------------|
|
|-12-10--------12-10-0--12-10-0--0--12-10-0--12-10-0--12-10-0-|
|---P----12-10---P--P-----P--P--------P--P-----P--P-----P--P--|
|----------P--------------------------------------------------|
|-------------------------------------------------------------|
|-------------------------------------------------------------|
|-------------------------------------------------------------|
|
|-12-10-0--12-10-0--12-10-0--12-10-0--12/-||
|---P--P-----P--P-----P--P-----P--P-------||
|-----------------------------------------||
|-----------------------------------------||
|-----------------------------------------||
|-----------------------------------------||

SOLO RIFF
|------------------||
|------------------||
|------------------||
|------------------||
|----/8-8-8--7---2-||
|-0--/6-6-6--5---0-||

|------------------------||
|------------------------||
|------------------------||
|------------------------||
|------------------------||
|-0-0-0-0-0--1-1-1-1-1-1-||
  ......................

|-------------------------||
|-------------------------||
|-------------------------||
|-------------------------||
|-2-2-2--2-2--2-2--2--2-2-||
|-0-0-0--0-0--0-0--0--0-0-||
    . .  . .  . .  .  . .

|-0-|------------------------------------|
|-0-|------------------------------------|
|-0-|------------------------------------|
|-0-|------------------------------------|
|-0-|-8----------------------------------|
|-0-|-6--0-0-0--0-0-0-0-0--0-0-0-0-0-0-0-|
|        . . .  . . . . .  . . . . . . .
|
|------------------------------------|--------|
|------------------------------------|--------|
|------------------------------------|--------|
|------------------------------------|--------|
|-9----------------------------------|--8--0--|
|-7--0-0-0--0-0-0-0-0--0-0-0-0-0-0-0-|--6--0--|

-Great words from the great nick


Текст, аккорды и табулатура для песни "Propaganda", исполняет "Sepultura".
Используемые в песне аккорды можно найти в разделе Как брать аккорды. Аккорды для шестиструнной гитары. Другие песни можно найти на нашем сайте, воспользовавшись алфавитным указателем вверху страницы.


Слушать онлайн Propaganda


SepulturaPropaganda на Яндекс.Музыке


 
Ошибка в тексте? Выделите ошибку и нажмите Ctrl+Enter