Email  for any question

Sepultura - Intro
tabbed by [email protected]

play 3 times -----------------------|
|-----------------|-----------------||-----------------|-------------|
|-----------------|-----------------||-----------------|-------------|
|-----------------|-----------------||-----------------|-------------|
|-----------------|-----------------||-----------------|-------------|
|-4-3---3---3-4-3-|---3---3-3-2-3-2-||-4-3---3---3-4-3-|---3---2-4-2-|
|-2-1---1---1-2-1-|---1---0-1-0-1-0-||-2-1---1---1-2-1-|---1---0-1-0-|
  . .   .   . . .     .   . . . . .    . .   .   . . .     .   . . .

play 3 times -------------------------|
|-----------------|-------------------||-----------------|-------------------|
|-----------------|-------------------||-----------------|-------------------|
|-----------------|-------------------||-----------------|-------------------|
|-4-----3---------|-(3)---------------||-3-----2---------|-(2)---------------| X 2
|-4-----3---------|-(3)-------3-3-3-3-||-3-----2---------|-(2)---------------|
|-2---0-1---------|-(1)-------1-1-1-1-||-1---0-0---------|-(0)---------------|
      .                       . . . .        .
  1 2 3 4 5 6 7 8    1  2 3 4 5 6 7 8    1 2 3 4 5 6 7 8    1  2 3 4 5 6 7 8

play 3 times -----------------------|
|-----------------|-----------------||-----------------|-------------|
|-----------------|-----------------||-----------------|-------------|
|-----------------|-----------------||-----------------|-------------|
|-----------------|-----------------||-----------------|-------------|
|-2-2---2---2-2-2-|---2---2-2-2-2-2-||-2-2---2---2-2-2-|---2---2-2-2-|
|-0-0---0---0-0-0-|---0---0-0-0-0-0-||-0-0---0---0-0-0-|---0---0-0-0-|
  . .   .   . . .     .   . . . . .    . .   .   . . .     .   . . .

play 4 times -----------------------|
|-----------------|-----------------|
|-----------------|-----------------|
|-----------------|-----------4-----|
|-4-3---4-3---4-3-|---4-3---3---3---|
|-----2-----2-----|-2-----2-------2-|
|-----------------|-----------------|
  . . . . . . . .   . . . . . . . .


play 4 times ------------------------|
|-----------------|------------------|
|-----------------|------------------|
|-----------------|------------------|
|-4-------------4-|------------------|
|-4-3-3-3-------4-|-3-3-3-3----------|
|-2-1-1-1-1111112-|-1-1-1-1-11111111-|
    . . . ......    . . . . ........
  1 2 3 4 5 6 7 8   1 2 3 4 5 6 7 8

play 3 times -------------------------|
|-----------------|-------------------||-----------------|-------------------|
|-----------------|-------------------||-----------------|-------------------|
|-----------------|-------------------||-----------------|-------------------|
|-4-----3---------|-(3)---------------||-3-----2---------|-(2)---------------|
|-4-----3---------|-(3)-------3-3-3-3-||-3-----2---------|-(2)---------------|
|-2---0-1---------|-(1)-------1-1-1-1-||-1---0-0---------|-(0)---------------|
      .                       . . . .        .
  1 2 3 4 5 6 7 8    1  2 3 4 5 6 7 8    1 2 3 4 5 6 7 8    1  2 3 4 5 6 7 8

play 3 times -----------------------|
|-----------------|-----------------||-----------------|-------------------|
|-----------------|-----------------||-----------------|-------------------|
|-----------------|-----------------||-----------------|-------------------|
|-4-----3---------|-----------------||-3-----2---------|-(2)---------------|
|-4-----3---3-3-3-|-3-3-3-3-3-3-3-3-||-3-----2---------|-(2)---------------|
|-2---0-1---1-1-1-|-1-1-1-1-1-1-1-1-||-1---0-0---------|-(0)---------------|
      .     . . .   . . . . . . . .        .
  1 2 3 4 5 6 7 8   1 2 3 4 5 6 7 8    1 2 3 4 5 6 7 8    1  2 3 4 5 6 7 8


Текст, аккорды и табулатура для песни "Intro", исполняет "Sepultura".
Используемые в песне аккорды можно найти в разделе Как брать аккорды. Аккорды для шестиструнной гитары. Другие песни можно найти на нашем сайте, воспользовавшись алфавитным указателем вверху страницы.


Слушать онлайн Intro


SepulturaIntro на Яндекс.Музыке


 
Ошибка в тексте? Выделите ошибку и нажмите Ctrl+Enter