x5
----------------------|  ----------------------| 
----------------------|  ----------------------|
----------------------|  |--h------------------------------|
----------------------|  |-/------------------------------|
|-3-2-----------------------------|  |-788---8-------------------------|
|-1-0-0-0-0-0-0-0-0-0-0-0-0-0-0-0-|  |-----7---0-0-0-0-0-0-0-0-0-0-0-0-|
    p----------------------------            p------------------------

----------------------|  ----------------------|
----------------------|  ----------------------|
----------------------|  |--h------------------------------|
----------------------|  |-/------------------------------|
|-3-2-----------------------------|  |-788---8-------------------------|
|-1-0-0-0-0-0-0-0-0-0-0-0-0-0-0-0-|  |-----7---0-0-0-0-0-0-0-0-0-0-0-0-|
    p----------------------------            p------------------------

                                 x3
----------------------|  ----------------------|
----------------------|  ----------------------|
----------------------|  ----------------------|
----------------------|  ----------------------|
|-3-2-------------------------x-x-|  |-3-2-----------------------------|
|-1-0-------------------------x-x-|  |-1-0-----------------------------|
              
                                 x4                                   x4
----------------------|  ----------------------|
----------------------|  ----------------------|
----------------------|  |--h------------------------------|
----------------------|  |-/------------------------------|
|-2-------------------------------|  |-2-3-2---------------------------|
|-0-0-0-0-0-0-0-0-0-0-0-0-0-0-0-0-|  |-0-1-0---0-0-0-0-0-0-0-0-0-0-0-0-|
  p------------------------------              p----------------------

                                                               x4
----------------------------------------------------|
----------------------------------------------------|
|---h-----------------------------------------------------------|
|-/------------------------------------------------------------|
|-2---3---2-----------------------------------------------------|
|-0---1---0-------0---0---0---0---0---0---0---0---0---0---0---0-|
                  p--------------------------------------------           
         
                                                                   x2
--------------------------------------------|
--------------------------------------------|
|--h------------------------------|--sl-----------------------------|
|-/------------------------------|-/------------------------------|
|-6-7-6---------------------------|-6-7-6---------------------------|
|-4-5-4---4-4-4-4-4-4-4-4-4-4-4-4-|-4-5-4---4-4-4-4-3-3-3-3-3-3-3-3-|
          p----------------------           p----------------------

                                                                   x2               
--------------------------------------------|
--------------------------------------------|
----------------------|--sl--------------sl-------------|
----------------------|-/--------------/--------------|
|-6-5-5-5-4-4-4-4-6-5-5-5-3-3-3-3-|-6-5---5-4-4-4-4-6-5---5-3-3-3-3-|
|-4-3-3-3-2-2-2-2-4-3-3-3-1-1-1-1-|-4-3---3-2-2-2-2-4-3---3-1-1-1-1-|
  p------------------------------         p------------   p--------

                                                                       x3
------------------------| ----------------------|
------------------------| ----------------------|
------------------------| ----------------------|
--------------3-------6-| ------------3-------6-|
|-2-2---2---2---2-2-------1-------4-| |-------2-------2-------1-------4-|
|-0-0---0---0---0-0-000000--000000--| |-0000000-0000000-000000--000000--|
                    p-----  p-----      p-----  p-----  p-----  p-----


Walking these dirty streets 
With hate in my mind
Feeling the scorn of the world
I won´t follow your rules

 Blame and lies, Contradictions arise
 Blame and lies, Contradictions arise
 
 Nonconformity in my inner self
 Only I guide my inner self

I won´t change my way
It has to be this way
I live my life for myself
Forget your filthy ways

 Blame and lies, Contradictions arise
 Blame and lies, Contradictions arise

Nobody will change my way
Life betrays, but I keep going 
There´s no light, but there´s hope
Crushing oppression, I win

Betraying and playing dirty, you think You´ll win
But someday you´ll fall, and I´ll be waiting
Laughs of an insane man, you´ll hear
Personality is my weapon against your envy

Walking these dirty streets
With hate in my mind
Feeling the scorn of the world
I won´t follow your rules

 Nonconformity in my inner self
 Only I guide my inner self


Текст, аккорды и табулатура для песни "Inner Self", исполняет "Sepultura".
Используемые в песне аккорды можно найти в разделе Как брать аккорды. Аккорды для шестиструнной гитары. Другие песни можно найти на нашем сайте, воспользовавшись алфавитным указателем вверху страницы.


Слушать онлайн Inner Self


SepulturaInner Self на Яндекс.Музыке


 
Ошибка в тексте? Выделите ошибку и нажмите Ctrl+Enter