Tuning: Eb, Ab ,Db, Gb, Bb, Eb,

guit 1
|--------------------------------------------|
|----11------11------11-------11-------11----|
|----14------14------14-------14-------14----|
|--------------------------------------------|
|--------------------------------------------|
|--------------------------------------------|
|
| guit 2
|--------------------------------|
|--------------------------------|
|-----3------3-----3-------3-----|
|--------------------------------|
|-3-3----3-3---3-3----3-3--------|
|-1-1----1-1---1-1----1-1--------|
  . .    . .   . .    . .

|------------------------0--------------|
|------------------------0--------------|
|---------------------------------------|
|---------------------------------------|
|--2----3---6---5-----2----3---6---5----|
|--0----1---4---3-----0----1---4---3----|

 pain makes me stronger every day...
|-------------------------------------------|
|-------------------------------------------|
|------3------3------3------3---------------|
|-------------------------------------------|
|-3-3----3-3----3-3-----3-3----3---6---5----|
|-1-1----1-1----1-1-----1-1----1---4---3----|
| . .    . .    . .     . .
| guit 2
|-------------------------------------------|
|-----11-----11-----11-----11---------------|
|-----14-----14-----14-----14---------------|
|-------------------------------------------|
|-------------------------------------------|
|------------------------------1---4---3----|

|--------------------------------------------|
|--------------------------------------------|
|--------------------------------------------|
|--------------------------------------------|
|-7-7-7-7--5-5-5-5--2-2-2-2--1-1-1-1-1-------|
|--------------------------------------------|
 ......................................

|-------------------------|---------------------------------------|
|-------------------------|---------------------------------------|
|-------------------------|-----------------3-----3-----3---------|
|-------------------------|---------------------------------------|
|-3-2-2-2-2----3-2-2-2-2--|--3-2-2-2-2--3-3---3-3---3-3----3-3----|
|-1-0-0-0-0----1-0-0-0-0--|--1-0-0-0-0--1-1---1-1---1-1----1-1--0-|
|                                       . .   . .   . .    . .
|gtr 2
|-------------------------|---------------------------------------|
|-------------------------|----------------11----11----11---------|
|-------------------------|----------------14----14----14---------|
|-------------------------|---------------------------------------|
|-3-2-2-2-2----3-2-2-2-2--|--3-2-2-2-2----------------------------|
|-1-0-0-0-0----1-0-0-0-0--|--1-0-0-0-0--------------------------0-|

 don't get me wrong...
|------------------------|
|------------------------|
|------------------------|
|----------------4-------|
|-5-6----5-6-----2-------|
|-3-4----3-4-------------|

|---------------------------------|
|---------------------------------|
|---------------------------------|
|---------------------------------|
|-3-3-3-3-3-3-3-3-3-3-3-3-3-3-----|
|-1-1-1-1-1-1-1-1-1-1-1-1-1-1-----|
  . . . . . . . . . . . . . .

|---------------------------------------|
|---------------------------------------|
|---------------------------------------|
|---------------------------------------|
|-5-5-5-5-5-5-5-5-5-5-5-6-6--6--9-9-----|
|-3-3-3-3-3-3-3-3-3-3-3-4-4--4--7-7-----|
  . . . . . . . . . . . . .

 soul mind fist...
|--------------------------------------------|
|--------------------------------------------|
|--------------------------------------------|
|--------------------------------------------|
|-3-3--3-2---3-3--3-2---3-3--3-2----2-2-1-3--|
|-1-1--1-0---1-1--1-0---1-1--1-0--0-------1--|
  . .  .     . .  .     . .  .

|-----------------------------|
|-----------------------------|
|-----------------------------|
|-2----/8------2----/9--------|
|-----------------------------|
|-0----/6------0----/7--------|

solo
|-------------------------------------------------------------------|
|---12--12--12--12--14--14--14--14--15--15--15--15--15--15--15--15--|
|-15--15--15--15--15--15--15--15--15--15--15--15--15--15--15--15----|
|-------------------------------------------------------------------|
|-------------------------------------------------------------------|
|-------------------------------------------------------------------|
|
|---------------------------------------|
|---17-17-----17--17-17--17-17-17/------|
|-15-----15-15--15---15--15-15-15/------|
|---------------------------------------|
|---------------------------------------|
|---------------------------------------|
|
|------------------------------------------|
|----h--p--h--p--h----p--h--p--h--p--------|
|--12-15-12-15-12--15--12-15-12-15-12/-----|
|------------------------------------------|
|------------------------------------------|
|------------------------------------------|
|
|------------------------------------------------------|
|-17-17-17-17-17-17-17-17/-17-17-17-17-17-17-17-17/----|
|-15-15-15-15-15-15-15-15/-15-15-15-15-15-15-15-15/----|
|------------------------------------------------------|
|------------------------------------------------------|
|------------------------------------------------------|
|
|-20-20-20-20-20-20-20-20-21-21-21-21-21-21-21/---|
|-19-19-19-19-19-19-19-19-19-19-19-19-19-19-19/---|
|-------------------------------------------------|
|-------------------------------------------------|
|-------------------------------------------------|
|-------------------------------------------------|

|--------------------------------|
|--------------------------------|
|--------------------------------|
|-----4----5-----------4----5----|
|--------------------------------|
|-0-----------------0------------|

 Outro
|--------------------------------------------|
|--------------------------------------------|
|--------------------------------------------|
|----------------------------------2---------|
|---2----4-----2----4-----2----2---0--6------|
|---0----2-----0----2-----0----4------4------|
|
| gtr 2
|---------------------------------------------------------------------|
|-----0---0---0---0---0---0---0---0---0---0---0-------11-12-11--------|
|--4----4---3---3---4---3---3---3---4---3---3---3/--9----------9-11/--|
|---------------------------------------------------------------------|
|---------------------------------------------------------------------|
|---------------------------------------------------------------------|
|
|
|--------------------------------------------|
|--------------------------------------------|
|--------------------------------------------|
|---------------------------------4-5-6------|
|---2----4-----2----4-----2----4--2-3-4------|
|---0----2-----0----2-----0----2-------------|
|
| gtr 2
|-------------------------------------------------------------------|
|---h--0---0---0-----0-----0---0---0---0---0---------------0--------|
|--3-4---4---3---3-4---3-3---3---4---3---3---3/9--9-9-9--9---9-9-9--|
|-------------------------------------------------------------------|
|-------------------------------------------------------------------|
|-------------------------------------------------------------------|
|
|
|---------------------------------------------------|
|---------------------------------------------------|
|---------------------------------------------------|
|--------------------------------------------2------|
|--------------------------------------------0--6---|
|-0-0-0-0--2~~~--0-0-0-0-2~~~--0-0-0-0-2~~~-----4---|
| . . . .        . . . .       . . . .
| Gtr2                                      harm...................|
|---------------------------------------------12----12-------------|
|---0---0---0----h----0------0---0---0---0-------12------12---5----|
|-4---4---3---3-3-4-4---3--3---3---4---3---3--------------------5--|
|-----------------------------------------------------------4------|
|------------------------------------------------------------------|
|------------------------------------------------------------------|
|
|
|------------------------------------------------|
|------------------------------------------------|
|------------------------------------------------|
|-----------------------------------------4-5-6--|
|-----------------------------------------2-3-4--|
|-0-0-0-0-2~~~-0-0-0-0-2~~~-0-0-0-0-2~~~---------|
| . . . .      . . . .      . . . .
| Gtr2
|----------------------------------------------------------------------------|
|---0---0---0---0---0---0---0---0---0---0---0--------------------------------|
|-4---4---3---3---4---3---3---3---4---3---3---3/--15-12-15-15-15-12-15-12-15-|
|----------------------------------------------------------------------------|
|----------------------------------------------------------------------------|
|----------------------------------------------------------------------------|
 
-great words from the great nick


Текст, аккорды и табулатура для песни "Clenched Fist", исполняет "Sepultura".
Используемые в песне аккорды можно найти в разделе Как брать аккорды. Аккорды для шестиструнной гитары. Другие песни можно найти на нашем сайте, воспользовавшись алфавитным указателем вверху страницы.


Слушать онлайн Clenched Fist


SepulturaClenched Fist на Яндекс.Музыке


 
Ошибка в тексте? Выделите ошибку и нажмите Ctrl+Enter