Band : Sentences
Song : I'll Throw the First Rock

 Tab by Asko Mдki
 Added by Mikhailo
___________________________________________

  tune down to D ( one Step down )

riff 1
   E5        D5        C5        A5
d|--------------------------------------------|
A|--------------------------------------------|
F|--------------------------------------------|
C|-2--5--7---5--4--5---4--5--7---9--7--5-4----|
G|--------------------------------------------|
D|--------------------------------------------|
                                                end riff 1
  E5        D5        G5                   A5
|----------------------------------------------------------------|
|----------------------------------------------------------------|
|----------------------------------------------------------------|
|-2--5--7---5--4--5---4--5--4---0--2-------4--4--4-5--4--0-2-----|
|----------------------------------------------------------------|
|----------------------------------------------------------------|

riff 2
  E5
|---------------------------------------------------------------|
|---------------------------------------------------------------|
|------0------------------------------0-------------------------|
|--------4--2--0-----0-----2---2--------4--2--0-----0-----2-----|
|---2--------------2---2-0---0-----2--------------2---2-0-------|
|-0--------------3---------------0--------------3-----------3-2-|

riff 3
-C5--H5--A5--A5--C5--H5--D5--D5--

riff 4
 E5        A5          C5       D5
|---------------------------------------------|-----
|'-------------------------------------------'|-----
|---14*-12-11----11-12~--14*-12-11----11------|-----
|-------------14-------------------14----12~--|-14~~
|'-------------------------------------------'|-----
|---------------------------------------------|-----

riff 2

riff 5
|-------------------------------------------------------------------|
|-------------------------------------------------------------------|
|-------------------------------------------------------------------|
|-2---2-0--0-2--------------------5---4-5-7---9--10--9--5--7--5--7--|
|--------------3--2-----0-----0-------------------------------------|
|--------------------3-----3----------------------------------------|
       
           end riff 5
|-------------------|-----
|-------------------|-----
|-------------------|--9~-
|-9--7--4--5--7--9--|-----
|-------------------|-----
|-------------------|-----

solo
 -E5--D5--C5--A5--E5--D5--C5--C5--A5--A5-    

riff 1


|--------------------|
|--------------------|
|--------------------|
|-4-4-4-5--4-0-4-2---|
|--------------------|
|--------------------|

 There are no strangers in this world
     only bastards I haven't met


Текст, аккорды и табулатура для песни "Ill Throw The First Rock", исполняет "Sentenced".
Используемые в песне аккорды можно найти в разделе Как брать аккорды. Аккорды для шестиструнной гитары. Другие песни можно найти на нашем сайте, воспользовавшись алфавитным указателем вверху страницы.


 
Ошибка в тексте? Выделите ошибку и нажмите Ctrl+Enter