hello- this is stephen by senses fail

drop d tuning      dadgbe

intro


--------------------------------------------------|
------5------5----5----5--------------------------|
----7-----7-----7----7----------------------------|
--7-----7-----7----7------play a few times--------|
--------------------------------------------------|
--------------------------------------------------|


intro 2 gt. 1  i put spaces to put the in between to make feeling right
play 7 and 3 2x more than shown


----------------------------------------------------|
----------------------------------------------------|
----------------------------------------------------|
-777-7-77-77-5-333-3-33-33--------------------------|
-777-7-77-77-5-333-3-33-33--------------------------|
-777-7-77-77-5-333-3-33-33--------------------------|

gt.2

----------------------------------------------------|
-------------8---------------8----------------------|
-555-5-55-5----555-5-55-55--------------------------|
----------------------------------------------------|
----------------------------------------------------|
----------------------------------------------------|


verse for guitars

---------------------------------------------------|
-----------10-8---------10-8----------10-8---------|
---5-5--5--------5-5----------5--5-----------------|
---------------------------------------------------|
---------------------------------------------------|
-0-------------------------------------------------|

pre chorus for both guitars


---------------------------------------------------|
---------------------------------------------------|
---------------------------------------------------|
-00000000-22222222-33333333------------------------|
-00000000-22222222-33333333------------------------|
-00000000-22222222-33333333------------------------|

chorus
   goodbye steven
---------------------------------------------------|
---------------------------------------------------|
---------------------------------------------------|
-00000000-33333333---------------------------------|
-00000000-33333333---x2----------------------------|
-00000000-33333333---------------------------------|

you were so young-you were so young

---------------------------------------------------|
---------------------------------------------------|
---------------------------------------------------|
-77777777-5-33333333-------------------------------|
-77777777-5-33333333-------------------------------|
-77777777-5-33333333-------------------------------|

verse 2 for guitars palm everything but gt.2 pt 2 of verse 2

----------------------------------------------------|
----------------------------------------------------|
----------------------------------------------------|
-77777777-5-33333333--------------------------------|
-77777777-5-33333333--------------------------------|
-77777777-5-33333333--------------------------------|


gt 2 part 2

the sun shined so brightly

-----------------------------------------------------|
------8p10/8-----x4----------------------------------|
--5--------------------------------------------------|
-----------------------------------------------------|
-----------------------------------------------------|
-----------------------------------------------------|


repeat pre chorus and chorus

-----------------------------------------------------|
-----5---5---5---------palm it-----------------------|
----5---5---5----------------------------------------|
--55--55--55-----------------------------------------|
-----------------------------------------------------|
-----------------------------------------------------|

then guitar 2 comes in around 3:00

-----------------------------------------------------|
---5-8-5-8-5-8---------------------------------------|
--5---5---5--------repeat a bunch--------------------|
-----------------------------------------------------|
-----------------------------------------------------|
-----------------------------------------------------|


then the last outro with screaming and before just repeat the intro or verse 2 without palming


bon appetite


Текст, аккорды и табулатура для песни "Stephen", исполняет "Senses Fail".
Используемые в песне аккорды можно найти в разделе Как брать аккорды. Аккорды для шестиструнной гитары. Другие песни можно найти на нашем сайте, воспользовавшись алфавитным указателем вверху страницы.


 
Ошибка в тексте? Выделите ошибку и нажмите Ctrl+Enter