Ok I'm taking the first tab and just making corrections to it because I think
there's a few parts that he missed. The guy who submitted the first version of
the full tab gets 90% credit, except for my corrections.

/ or = slide
PM = ............
Ring Out = ~  
Drop D Tuning

Intro:
Guitar 1

e:---------0----------------0----------------0---------------0-------
B:-----3-----3---3------3-----3----------3-----3---3-----3-----3---3-
G:-2-2---2-----2----4-4---4-----2h4--0-0---0-----0---0-0---0-----0---
D:-------------------------------------------------------------------
A:-------------------------------------------------------------------
D:-------------------------------------------------------------------

Guitar 2

e:-12---12---12---12----10--10--10--10----9---9---9---9---9---9---9--
B:---10---10---10---10----10--10--10--10---10--10--10--10--10--10--10
G:-------------------------------------------------------------------
D:-------------------------------------------------------------------
A:-------------------------------------------------------------------
D:-------------------------------------------------------------------

If you want you can add this basspart as a third part. It comes in at 0:33.
(Note: this is only for the third verse)
Guitar 3:

e:-------------------------------------------------------------------
B:-------------------------------------------------------------------
G:-------------------------------------------------------------------
D:-----0~----9~----5~---5~-------------------------------------------
A:-----0~----9~----5~---5~-------------------------------------------
D:-12/-0~----9~----5~---5~-------------------------------------------

Verse 

Both Guitars 

(Shot Through My Heart...)

e:------------------------------------------------------------------
B:------------------------------------------------------------------
G:------------------------------------------------------------------
D:-0-0-0-0-0-0-0--9-9-9-9-9-9-9--7-9-5-5-5-5-5-5-5--5-5-5-5-5-5-----
A:-0-0-0-0-0-0-0--9-9-9-9-9-9-9--7-9-5-5-5-5-5-5-5--5-5-5-5-5-5-----
D:-0-0-0-0-0-0-0--9-9-9-9-9-9-9--7-9-5-5-5-5-5-5-5--5-5-5-5-5-5-----
     .............................................  ...   ...

Chorus

e:------------------------------------------------------------------
B:------------------------------------------------------------------
G:-----------------------7-7-7-7//9-9-9-9//11-11-11-11//12-12-12-12-
D:-999999999--555555555--x-x-x-x//x-x-x-x//-x--x--x--x//xx-xx-xx-xx-
A:-999999999--555555555--5-5-5-5//7-7-7-7//-9--9--9--9//10-10-10-10-
D:-999999999--555555555---------------------------------------------

Continued:
e:-----------------or------------------------------------------------
B:-----------------or------------------------------------------------
G:-----------------or-6-6-6-6-6-6-6-6-6-6-6-6-It's best if you have two
D:---444444444444--or-x-x-x-x-x-x-x-x-x-x-x-x-guitars. One playing each
A:---444444444444--or-4-4-4-4-4-4-4-4-4-4-4-4-chord.-----------------
D:---444444444444--or------------------------------------------------

Fill to Bridge:
e:-------------------------
B:-------------------------
G:-------------------------
D:--4-4-4-4-4-4-4-4-4-4-4-4
A:--4-4-4-4-4-4-4-4-4-4-4-4
D:--4-4-4-4-4-4-4-4-4-4-4-4
  Pm.......................

Bridge:
e:-------------------------------------------------------------------
B:-------------------------------------------------------------------
G:----------------------------7-7-7-7//9-9-9-9//11-11-11//12-12-12-12
D:--999999999999-555555555555-x-x-x-x//x-x-x-x//-x--x--x//-x--x--x--x
A:--999999999999-555555555555-5-5-5-5//7-7-7-7//-9--9--9//10-10-10-10
D:--999999999999-555555555555----------------------------------------

e:-----------------or------------------------------------------------
B:-----------------or------------------------------------------------
G:-----------------or-6-6-6-6-6-6-6-6-6-6-6-6-It's best if you have two
D:---444444444444--or-x-x-x-x-x-x-x-x-x-x-x-x-guitars. One playing each
A:---444444444444--or-4-4-4-4-4-4-4-4-4-4-4-4-chord.-----------------
D:---444444444444--or------------------------------------------------

Then there's this second guitar part that comes in and is all octaves:
Listen for it and you'll get it.
e:-------------------------------------------------------------------
B:-------------------------------------------------------------------
G:--121212121212-1111-9-9-9-9-7-7-7-7-6-6-6-6-6-6-7-7-7-7-7-7-7------
D:--xxxxxxxxxxxx-xxxx-x-x-x-x-x-x-x-x-x-x-x-x-x-x-x-x-x-x-x-x-x------
A:--101010101010-9999-7-7-7-7-5-5-5-5-4-4-4-4-4-4-5-5-5-5-5-5-5------
D:-------------------------------------------------------------------

Ending:

e:-------------------------------------------------------------------
B:-------------------------------------------------------------------
G:11-11-11-11/12-12-12-11-11-----------------------------------------
D:-x--x--x--x/xx-xx-xx--x--x-----------------------------------------
A:-9--9--9--9/10-10-10--9--9-----------------------------------------
D:-------------------------------------------------------------------

Enjoy!


P.S. If your ever hear some kind of octaves in the background and you're
not sure what to play just fool around with this octave progression:
e-----------------------------|
B-----------------------------|
G--12---11----9----7----6---7-|
D---x----x----x----x----x---x-|
A--10----9----7----5----4---5-|
D-----------------------------|
(Strumming not shown)


Текст, аккорды и табулатура для песни "One Eight Seven", исполняет "Senses Fail".
Используемые в песне аккорды можно найти в разделе Как брать аккорды. Аккорды для шестиструнной гитары. Другие песни можно найти на нашем сайте, воспользовавшись алфавитным указателем вверху страницы.


 
Ошибка в тексте? Выделите ошибку и нажмите Ctrl+Enter