Senses Fail-Handguns and Second Chances
Drop D tuning
h=hammer
p=pull-off
..=palm mute
9x
8x=mute after strumming
6x

9
x=mute string
6


Guitar 1
--------
Intro                        This part played 4x
e|-------------------------|-----------------------------------------|
b|-9~---9~---9~---9~--9-9x-|-9-9-9-9-9x-9-9-9-9-9x-9-9-9x-9-9-9-9-9x-|
g|-8~---8~---8~---8~--8-8x-|-8-8-8-8-8x-8-8-8-8-8x-8-8-8x-8-8-8-8-8x-|
d|-6~---6~---6~---6~--6-6x-|-6-6-6-6-6x-6-6-6-6-6x-6-6-6x-6-6-6-6-6x-|
a|-------------------------|-----------------------------------------|
D|-------------------------|-----------------------------------------|

Intro Cont'd
e|------------------|
b|-9-9-9-9-9x-9-9-9-|
g|-8-8-8-8-8x-8-8-8-|
d|-6-6-6-6-6x-6-6-6-|
a|------------------|
D|------------------|
              . .     On 2nd and 4th times, dont play palm mutes

Verse (To Kill...)  (come in on 3rd time)
e|------------------------------|
b|-9-9----9-9-9-9---------------|
g|-8-8----8-8-8-8---------------|
d|-6-6----6-6-6-6--6-6-6--3-3-3-|
a|-----------------6-6-6--3-3-3-|
D|-----------------6-6-6--3-3-3-|
                   . .    . .

Chorus (And now, I know...) (2x)
e|-----------------------------------P------------------------------------|
b|-9-----9-----11---9-----9-----11---a-9-----9-----11-----11------9h11p9--|
g|---8-----8------8---8-----8------8-u---8-----8------8------8------------|
d|-----6-----6----------6-----6------s-----6-----6------6------6----------|
a|-----------------------------------e------------------------------------|
D|------------------------------------------------------------------------|

Verse (pick slide on 2nd, come in on 3rd again)
play verse 2x

Bridege (And I'm, too scared...) (come in on 2nd time)
                                                This part played 3x
e|---------------------------------------------|---------------------|
b|---------------------------11-----11---------|-9-9x-9-9x-9-9x-9-9x-|
g|-8-6-5---8-6-5-----8-6-5------8------8-----8-|-x-x--x-x--x-x--x-x--|
d|-------6-------6/8-------6------6------6-----|-6-6x-6-6x-6-6x-6-6x-|
a|---------------------------------------------|---------------------|
D|---------------------------------------------|---------------------|
Bridge Cont'd
e|-------------------------------------------------------------
b|-8-8-8-8-8-9-9x-9-9x-9-9x-9-9x-8-8-8-8-8-9-9x-9-9x-9-9x-9-9x-
g|-x-x-x-x-x-x-x--x-x--x-x--x-x--x-x-x-x-x-x-x--x-x--x-x--x-x--
d|-5-5-5-5-5-6-6x-6-6x-6-6x-6-6x-5-5-5-5-5-6-6x-6-6x-6-6x-6-6x-
a|-------------------------------------------------------------
D|-------------------------------------------------------------
Bridge Cont'd
e|-----------------------------------------|
b|-8-8-8-8-8/13-13-13-13-13-11-11-11-11-11-|
g|-x-x-x-x-x--x--x--x--x--x--x--x--x--x--x-|
d|-5-5-5-5-5/10-10-10-10-10--8--8--8--8--8-|
a|-----------------------------------------|
D|-----------------------------------------|

Chorus

Ending
e|--------|
b|-9-9-9x-|
g|-x-x-x--|
d|-6-6-6x-|
a|--------|
D|--------|

Guitar 2
--------

Intro                    This part played 4x
e|---------------------|-----------------------------------------|
b|---------------------|-----------------------------------------|
g|------6~----------6~-|------------------------------6-6-6-6-6x-|
d|-3~---6~----3~----6~-|-3-3-3-3-3x-3-3-3-3-3x-3-3-3x-6-6-6-6-6x-|
a|-3~---4~----3~----4~-|-3-3-3-3-3x-3-3-3-3-3x-3-3-3x-4-4-4-4-4x-|
D|-3~---------3~-------|-3-3-3-3-3x-3-3-3-3-3x-3-3-3x------------|
Intro Cont'd
e|------------------|
b|------------------|
g|-6-6-6-6-6x-6-6-6-|
d|-6-6-6-6-6x-6-6-6-|
a|-4-4-4-4-4x-4-4-4-|
D|------------------|Same as guitar one, 2nd/4th times, dont play palm mutes
              . .

Verse (To Kill...) (4x)
e|-----------------------|
b|-----------------------|
g|--------6-6------------|
d|-3-3----6-6----6-6-1-1-|
a|-3-3----4-4----6-6-1-1-|
D|-3-3-----------6-6-1-1-|
   . .    . .    . . . .

Chorus (And now, i know...) (2x)
e|---------------------P-----------------------|
b|---------------------a-----------------------|
g|---------------------u-6-6-6-6-6-------------|
d|-3-3-3-3-3-6-6-6-6-6-s-6-6-6-6-6-6-6-6-1-1-1-|
a|-3-3-3-3-3-6-6-6-6-6-e-4-4-4-4-4-6-6-6-1-1-1-|
D|-3-3-3-3-3-6-6-6-6-6-------------6-6-6-1-1-1-|

Verse

Chorus

Bridge (And im, too scared...)
 (2x)                 (2x)
e|--------------------|-------------------------------------------
b|--------------------|-------------------------------------------
g|-----------6--------|-------------------------------------------
d|-3----6----6----6-1-|-3-3-3-3-3x-3-3x-3-3x-3-3-3-3-3-6-6-6-6-6x-
a|-3----6----4----6-1-|-3-3-3-3-3x-3-3x-3-3x-3-3-3-3-3-6-6-6-6-6x-
D|-3----6---------6-1-|-3-3-3-3-3x-3-3x-3-3x-3-3-3-3-3-6-6-6-6-6x-

Bridge Cont'd
e|---------------------------------------------------------------
b|---------------------------------------------------------------
g|---------------------6-6-6-6-6x-6-6x-6-6x-6-6-6-6-6------------
d|-6-6x-6-6x-6-6-6-6-6-6-6-6-6-6x-6-6x-6-6x-6-6-6-6-6-6-6-6-6-6x-
a|-6-6x-6-6x-6-6-6-6-6-4-4-4-4-4x-4-4x-4-4x-4-4-4-4-4-6-6-6-6-6x-
D|-6-6x-6-6x-6-6-6-6-6--------------------------------6-6-6-6-6x-

Bridge Cont'd
e|------------|
b|------------|
g|------------|
d|-1-1-1-1-1x-|
a|-1-1-1-1-1x-|
D|-1-1-1-1-1x-|

Chorus

Ending 
e|--------|
b|--------|
g|--------|
d|-3-3-3x-|
a|-3-3-3x-|
D|-3-3-3x-|


Текст, аккорды и табулатура для песни "Handguns And Second Chances", исполняет "Senses Fail".
Используемые в песне аккорды можно найти в разделе Как брать аккорды. Аккорды для шестиструнной гитары. Другие песни можно найти на нашем сайте, воспользовавшись алфавитным указателем вверху страницы.


 
Ошибка в тексте? Выделите ошибку и нажмите Ctrl+Enter