Senses Fail - Freefall Without A Parachute
Drive-Thru Records

Tabbed by Ryan Matocha (posted by RiRaY)

Dropped D tuning

I wrote this tab to be played on one guitar.. it combines a little of
both guitar parts and sounds pretty close when you only have 1 guitarist

Intro:
PALM MUTED
E|---------------------------------------------------------------------|
B|-------6---5-6---6-----6---5-6---6-----6---5-6---6-----6---5-6---6---|
G|---------5-----5---------5-----5---------5-----5---------5-----5-----|
D|--0--0---------------0---------------0---------------0---------------|
A|---------------------------------------------------------------------|
D|---------------------------------------------------------------------|


E|-----------------------------------------------------|
B|-----------------------------------------------------|
G|--10--10--10--10--12--9----9/10--10--10--10--12--9---|
D|--x---x---x---x---x---x----x/x---x---x---x---x---x---|
A|--8---8---8---8---10--7----7/8---8---8---8---10--7---|
D|--0---0---0---0---0---0----0/0---0---0---0---0---0---|
							  
	(just let the low D string ring open.. guitar 1
	 plays an open D power chord during this part)
							  

E|-------------------------------------|
B|-------------------------------------|
G|--9--10--x-x--10-----9--10--x-x--10--| 
D|--9--10--x-x--10-----9--10--x-x--10--|
A|--7--8---x-x--8------7--8---x-x--8---|
D|--7--8---x-x--8------7--8---x-x--8---|

E|----------------------------------------------------|
B|----------------------------------------------------|
G|--10--10--10--10--12--9----9/10--10--10--10--12--9--|
D|--x---x---x---x---x---x----x/x---x---x---x---x---x--|
A|--8---8---8---8---10--7----7/8---8---8---8---10--7--|
D|--0---0---0---0---0---0----0/0---0---0---0---0---0--|

E|------------------------------------------|
B|------------------------------------------|
G|--9--10--x-x--10-----9--10--x-x--10---12--|
D|--9--10--x-x--10-----9--10--x-x--10---12--|
A|--7--8---x-x--8------7--8---x-x--8----10--|
D|--7--8---x-x--8------7--8---x-x--8----10--|


Verse 1:
(these are just the chords played, listen to the song for strumming pattern)

E|-------------------------------------|
B|-------------------------------------|
G|-------9--10----9 10-9---10--9-10-9--| 
D|--0----9--10----9 10 9---10--9-10-9--|  x2
A|--0----7--8-----7 8  7---8---7 8--7--|
D|--0----7--8-----7 8  7---8---7 8--7--|
 


Pre-Chorus: 

E |-----------------------------------------------------|
B |-----------------------------------------------------|
G |--10--10--10--10--12--9----9/10--10--10--10--12--9---|
D |--x---x---x---x---x---x----x/x---x---x---x---x---x---|
A |--8---8---8---8---10--7----7/8---8---8---8---10--7---|
D |--0---0---0---0---0---0----0/0---0---0---0---0---0---|
 

E |-------------------------------------|
B |-------------------------------------|
G |--9--10--x-x--10-----9--10--x-x--10--| 
D |--9--10--x-x--10-----9--10--x-x--10--|
A |--7--8---x-x--8------7--8---x-x--8---|
D |--7--8---x-x--8------7--8---x-x--8---|
     

E |----------------------------------------------------|
B |----------------------------------------------------|
G |--10--10--10--10--12--9----9/10--10--10--10--12--9--|
D |--x---x---x---x---x---x----x/x---x---x---x---x---x--|
A |--8---8---8---8---10--7----7/8---8---8---8---10--7--|
D |--0---0---0---0---0---0----0/0---0---0---0---0---0--|
     

E |------------------------------------------|
B |------------------------------------------|
G |--9--10--x-x--10-----9--10--x-x--10---12--|
D |--9--10--x-x--10-----9--10--x-x--10---12--|
A |--7--8---x-x--8------7--8---x-x--8----10--|
D |--7--8---x-x--8------7--8---x-x--8----10--|
     


Chorus:
(just the chords, not sure about the last one; this figure is played only once)

E |--------------------------|
B |--------------------------|
G |--5-----------10---5---4--|
D |--5-----0-----10---5---2--|
A |--3-----0-----8----3---3--|
D |--3-----0-----8----3---2--|
 


Verse 2:
Same as Verse 1
 


Pre-Chorus: 

E |-----------------------------------------------------|
B |-----------------------------------------------------|
G |--10--10--10--10--12--9----9/10--10--10--10--12--9---|
D |--x---x---x---x---x---x----x/x---x---x---x---x---x---|
A |--8---8---8---8---10--7----7/8---8---8---8---10--7---|
D |--0---0---0---0---0---0----0/0---0---0---0---0---0---|
 

E |-------------------------------------|
B |-------------------------------------|
G |--9--10--x-x--10-----9--10--x-x--10--| 
D |--9--10--x-x--10-----9--10--x-x--10--|
A |--7--8---x-x--8------7--8---x-x--8---|
D |--7--8---x-x--8------7--8---x-x--8---|
     

E |----------------------------------------------------|
B |----------------------------------------------------|
G |--10--10--10--10--12--9----9/10--10--10--10--12--9--|
D |--x---x---x---x---x---x----x/x---x---x---x---x---x--|
A |--8---8---8---8---10--7----7/8---8---8---8---10--7--|
D |--0---0---0---0---0---0----0/0---0---0---0---0---0--|
     

E |------------------------------------------|
B |------------------------------------------|
G |--9--10--x-x--10-----9--10--x-x--10---12--|
D |--9--10--x-x--10-----9--10--x-x--10---12--|
A |--7--8---x-x--8------7--8---x-x--8----10--|
D |--7--8---x-x--8------7--8---x-x--8----10--|
     


Chorus: (played twice)

E |--------------------------|
B |--------------------------|
G |--5-----------10---5---4--|
D |--5-----0-----10---5---2--|
A |--3-----0-----8----3---3--|
D |--3-----0-----8----3---2--|
 


Bridge (or whatever you want to call it):

E |---------------------------------------------|
B |---------------------------------------------|
G |--10-----10-9----10----9----9-10----10-9-----|
D |--10----------10---------10--------------10--|
A |--8------------------------------------------|
D |--8------------------------------------------|

E |-----------------------|
B |--11-10-8--------------|
G |----------10-9-10------|
D |-----------------------|
A |-----------------------|
D |-----------------------|
   

E |-----------------------------------------------------|
B |-----------------------------------------------------|
G |--10-----10--10/12---9-----10-----10--10/12---9------|
D |--10-----x----x/x----x-----10-----x----x/x----x------|
A |--8------8----8/10---7-----8------8----8/10---7------|
D |--8------0----0/0----0-----8------0----0/0----0------|
   

E |--------------------------|
B |--------------------------|
G |--5----------10----5---4--|
D |--3-----0----10----3---2--|
A |--3-----0----8-----3---3--|
D |--3-----0----8-----3---2--|
    
    

Chorus: (twice)

E |--------------------------|
B |--------------------------|
G |--5----------10----5---4--|
D |--3-----0----10----3---2--|
A |--3-----0----8-----3---3--|
D |--3-----0----8-----3---2--|
   

I haven't figured out the last part of the song... haven't had time
I'm just posting what I have here so far


Текст, аккорды и табулатура для песни "Freefall Without A Parachute", исполняет "Senses Fail".
Используемые в песне аккорды можно найти в разделе Как брать аккорды. Аккорды для шестиструнной гитары. Другие песни можно найти на нашем сайте, воспользовавшись алфавитным указателем вверху страницы.


 
Ошибка в тексте? Выделите ошибку и нажмите Ctrl+Enter