Song : Closing Time
Band : Semisonic
Tabbed By : Diamond Jerry ([email protected])
[email protected]-------------

(INTRO)

 G - D - Am - C (3x)   
 (Riff on 2nd times and along the verse)


 (Riff)
 e---7---7---10---7---7---7---8---7----|
 B----8---8----8---8---8---8---8---8---|
 G-------------------------------------|
 D-------------------------------------|
 A-------------------------------------|
 E-------------------------------------|


(VERSE1)
 
 G - D - Am - C (8x)

 Closing time, open all the doors and let you out into the world
 Closing time, turn all of the lights on over every boy and every girl
 Closing time, one last call for alcohol so finish your whiskey or beer
 Closing time, you don't have to go home but you can stay here


(CHORUS)

 G* - D* - Am* - C* (4x)

   I know who I want to take me home
   I know who I want to take me home
   I know who I want to take me home
   Take me home....

(VERSE2)

 G - D - Am - C (8x)

 Closing time, time for you to go out to the places you will be from
 Closing time, this room won't be open till your brothers or your sisters come
 So gather up your jackets move it to the exit
 I hope you had found a friend
 Closing time, every new beginning from comes some other beginning's end.. yeah


(Repeat CHORUS)

(BRIDGE)

 Bb - G# - Eb - C* (3x)
 G - D - Am - C (Riff) (2x)


(Solo)
 
  G* - D* - Am* - C* (4x)

 e----------------------------------|
 B----------------------------------|
 G----------------------------------| repeat 2x then
 D----------2--5b-----------7--9b---|
 A---3--5-------------7--9----------|
 E----------------------------------|

 e-------------|
 B-------------|
 G-------------|
 D---------2---|
 A---3--5------|
 E-------------|

(VERSE3)
 
 G - D - Am - C,  G - D - Am...

Closing time, time for you to go out to the places you will be from

(Repeat CHORUS 2x) (Solo on 2nd Chorus)
(Repeat SOLO)


(OUTRO) with riff

 G - D - Am - C (2x)

Closing time,every new beginning comes from some other beginning's end




(Chord)

     G   D   Am  C     G*  D* Am*  C*
 e---3---2---x---x----------------------|
 B---3---3---1---1----------------------|
 G---0---2---2---0---------7-------5----|
 D---0---0---2---2-----5---7---7---5----|
 A---2---0---0---3-----5---5---7---3----|
 E---3---x---x---x-----3-------5--------|

----------------------------------------------------------------------------------
Any comments or corrections,just mail me to [email protected]/ICQ #115343571


Текст, аккорды и табулатура для песни "Closing Time", исполняет "Semisonic".
Используемые в песне аккорды можно найти в разделе Как брать аккорды. Аккорды для шестиструнной гитары. Другие песни можно найти на нашем сайте, воспользовавшись алфавитным указателем вверху страницы.


 
Ошибка в тексте? Выделите ошибку и нажмите Ctrl+Enter