intro
 под аккорды Dm G C F Dm E Am    
e-----------------------------------------------------------------------------------|
B|-/5-5-5-5--8--8-6---6-5-3--3-3-3-3--6--6-5---5-3-1--1-1-1-1-1-1-0--0-0-0-0-1-0------1---------|
G--------------------------------------------------------------------2-(2)--2-------|
D-----------------------------------------------------------------------------------|
A-----------------------------------------------------------------------------------|
E-----------------------------------------------------------------------------------|


               Am       e|-8--8-7-5~-----|                  
Стук знакомый замка
             Dm         e|-10--10-8-7~---| 
Снова будит меня.
                 E      e|-10--10-8-7~---|
Вновь на сердце тоска
               Am A7    e|-8-7-8-10-12~--| 
Заключенного дня.
               Dm  G    e|-13--13-12-10~-|                   |
Вспоминаю тот день.                                          |  играть  
                 C  F   e|-12--12-10-8~--|		     | 		
Не забыть того дня,    					     |	2 раза
             Dm     E   e|-10--10-8-7~---|		     |	
Как друзей я отшил,    					     |		
              Am        e|-8-7-8-10-12~--|    |--8-5-------|
Взяв вину на себя.       / 1 раз /            / 2 раз (во втором куплете) /

В клетку днем облака,
В клетку ночью луна.
И сияньем своим
Будоражит она.
Пьют на воле кенты  
И с подругами спят, 
Они там, а я здесь -
Я взял вину на себя.

solo:
 гитара 1 - аккорды куплета (тональность Am)
 гитара 2 - solo 
 гитара 3 - solo 
e-----------------------------------------------------------------------------------|
B|-1-1-1-1-0----------1-1-1-1-0-3-1-(1)------3-3-3-3-1-0-(0)------3-3-3-3-0-3-1-(1)--0-1--3--5--|
G2-(2)------------------------------------------------------------------------------|
D-----------------------------------------------------------------------------------|
A-----------------------------------------------------------------------------------|
E-----------------------------------------------------------------------------------|
 |                                                                                          
e-8--8-7-5-(5)---------10--10-8-7-(7)-------10--10-8-7-(7)---------------7-8-10-12--|
B-----------------------------------------------------------------------------------|
G-----------------------------------------------------------------------------------|
D-----------------------------------------------------------------------------------|
A-----------------------------------------------------------------------------------|
E-----------------------------------------------------------------------------------|

e-----------------------------------------------------------------------------------|
B|5-5-5-5--8--8-6---6--5--3--3-3-3-3--6--6-5---5--3--1--1-1-1-1-1-1-0-(0)------0-0-0-0-0-1--1---|
G------------------------------------------------------------------------------2--2-|
D-----------------------------------------------------------------------------------|
A-----------------------------------------------------------------------------------|
E-----------------------------------------------------------------------------------|
 |                                                                                             
e---13--13-12-10---------------12--12-10-8---------------10--10-8-7-------------8-5-|
B-----------------------------------------------------------------------------------|
G-----------------------------------------------------------------------------------|
D-----------------------------------------------------------------------------------|
A-----------------------------------------------------------------------------------|
E-----------------------------------------------------------------------------------|


           Hm            e|-10-9-10-9--7~-----|
А на воле весна!
                  Em     e|-12-10-12-10--9~---|
Воздух давит на грудь!
                 F#      e|-12-10-12-10--9~---|
После трудного дня
             Hm H7       e|-10-9-10-12-14~----|
Не могу я уснуть.
                Em  A    e|-15-14-15-14--12~--|     |
Вы гуляйте во всю!     				    |  играть 
               D  G      e|-14-12-14-12--10~--|     |
Это вам сказал я!      				    |  2 раза
               Em   F#   e|-12-10-12-10--9~---|     |
Пусть душа не болит...  			    |
                  Hm     e|-10-9-10-12-14~----|     |
Я взял вину на себя.      /играть только 1 раз/     |

outro: (2 раза)
  Em A D G Em F# Hm H7  (1 раз)
  Em A D G Em F# Hm     (2 раз)                                                                    
e-----------------------------------------------------------------------/ 1 раз  /--|
B|-7-7-7-7--10--10-8---8-7-5--5-5-5-5--8--8-7---7-5-3--3-3-3-3-3-3-2--2-2-2-2-3-2---3-2-3-5-7---|
G---------------------------------------------------------------------4-(4)---------|
D-----------------------------------------------------------------------------------|
A-----------------------------------------------------------------------------------|
E-----------------------------------------------------------------------------------|


Текст, аккорды и табулатура для песни "Взял вину на себя", исполняет "Сектор Газа".
Используемые в песне аккорды можно найти в разделе Как брать аккорды. Аккорды для шестиструнной гитары. Другие песни можно найти на нашем сайте, воспользовавшись алфавитным указателем вверху страницы.


 
Ошибка в тексте? Выделите ошибку и нажмите Ctrl+Enter