Fill 1:         

Глухой поселок среди леса, мать его ети, 
Здесь от покойников конкретно можно огрести, 
Они творят бесчинства и шныряют по ночам, 
        Fill 2:

И даже в доме этой ночью нет покоя нам. 

А за окном горит луна и светит на погост, 
В испуге кошка наша черная поджала хвост, 
И слышен за окном ужасный и загробный вой,- 
        Fill 2:

Наверно, трупы под землею потеряли покой. 

        Fill 1:  
       
Мертвый в доме – закрой зеркала, 
Мертвый в доме – ждет из-за угла, 
Мертвый в доме – е-мое, 
        Fill 2:

Он жаждет вашей крови – он получит ее. 

       Fill 1:
         
Твоя прабабка этой страшной ночью умерла, 
Была при жизни ведьмой очень-очень злой она, 
Теперь она в гробу и на столе, 
       Fill 2:

А дух ее уже давно летает на метле.
 
        Fill 1:   
      
Мы задремали - бабушка тотчас 
Вперила очи мертвые на нас, 
Из мертвой пасти ее вылезли большие клыки, 
        Fill 2:

Не трогай, бабушка, нас, мы ж - твои правнуки! 

        Fill 1:
         
Мертвый в доме – закрой зеркала, 
Мертвый в доме – ждет из-за угла, 
Мертвый в доме – он как-то проник, 
       Fill 2:

Он жаждет вашей крови, защищайся, мужик! 



         Fill 1:         
E-------------------------------------------------------------------
B-------------------------------------------------------------------
G|--7-7-7-7-7-7-7-7-10-10-10-12-------------------------------------------------
D|--7-7-7-7-7-7-7-7-10-10-10-12-------------------------------------------------
A|--5-5-5-5-5-5-5-5-8--8--8--10-------------------------------------------------
E-------------------------------------------------------------------

        Fill 2:
E-------------------------------------------------------------------
B-------------------------------------------------------------------
G|--14-14-14-14-14-14-14-14-10-10-10-7------------------------------------------
D|--14-14-14-14-14-14-14-14-10-10-10-7------------------------------------------
A|--12-12-12-12-12-12-12-12-8--8--8--5------------------------------------------
E-------------------------------------------------------------------





Текст, аккорды и табулатура для песни "Мертвый в доме", исполняет "Сектор Газа".
Используемые в песне аккорды можно найти в разделе Как брать аккорды. Аккорды для шестиструнной гитары. Другие песни можно найти на нашем сайте, воспользовавшись алфавитным указателем вверху страницы.


 
Ошибка в тексте? Выделите ошибку и нажмите Ctrl+Enter